ISO-10303-21;
HEADER;
FILE_DESCRIPTION (( 'STEP AP214' ),
    '1' );
FILE_NAME ('A201 Äèñòàíöèîííàÿ âòóëêà 5õ6 ìì.STEP',
    '2020-10-06T11:52:50',
    ( 'Windows User' ),
    ( '' ),
    'SwSTEP 2.0',
    'SolidWorks 2020',
    '' );
FILE_SCHEMA (( 'AUTOMOTIVE_DESIGN' ));
ENDSEC;

DATA;
#1 = CARTESIAN_POINT ( 'NONE',  ( 0.0000000000000000000, 0.0000000000000000000, 5.799999999999998046 ) ) ;
#2 = CARTESIAN_POINT ( 'NONE',  ( 0.0000000000000000000, 0.0000000000000000000, 6.000000000000000000 ) ) ;
#3 = STYLED_ITEM ( 'NONE', ( #113 ), #341 ) ;
#4 = CARTESIAN_POINT ( 'NONE',  ( 0.0000000000000000000, 0.0000000000000000000, 5.799999999999998046 ) ) ;
#5 = EDGE_CURVE ( 'NONE', #234, #94, #107, .T. ) ;
#6 = CARTESIAN_POINT ( 'NONE',  ( 0.0000000000000000000, 0.0000000000000000000, 6.000000000000000000 ) ) ;
#7 = EDGE_CURVE ( 'NONE', #360, #326, #45, .T. ) ;
#8 = AXIS2_PLACEMENT_3D ( 'NONE', #250, #342, #88 ) ;
#9 = APPLICATION_PROTOCOL_DEFINITION ( 'draft international standard', 'automotive_design', 1998, #16 ) ;
#10 = ORIENTED_EDGE ( 'NONE', *, *, #179, .F. ) ;
#11 = ORIENTED_EDGE ( 'NONE', *, *, #136, .F. ) ;
#12 = ORIENTED_EDGE ( 'NONE', *, *, #269, .T. ) ;
#13 = AXIS2_PLACEMENT_3D ( 'NONE', #43, #301, #332 ) ;
#14 = CIRCLE ( 'NONE', #220, 2.775000000000004796 ) ;
#15 = ORIENTED_EDGE ( 'NONE', *, *, #136, .T. ) ;
#16 = APPLICATION_CONTEXT ( 'automotive_design' ) ;
#17 =( NAMED_UNIT ( * ) PLANE_ANGLE_UNIT ( ) SI_UNIT ( $, .RADIAN. ) );
#18 = VERTEX_POINT ( 'NONE', #243 ) ;
#19 = FACE_OUTER_BOUND ( 'NONE', #181, .T. ) ;
#20 = CIRCLE ( 'NONE', #152, 2.775000000000004796 ) ;
#21 = PRODUCT ( 'A201 Äèñòàíöèîííàÿ âòóëêà 5õ6 ìì', 'A201 Äèñòàíöèîííàÿ âòóëêà 5õ6 ìì', '', ( #352 ) ) ;
#22 = CARTESIAN_POINT ( 'NONE',  ( 0.0000000000000000000, 0.0000000000000000000, 6.000000000000000000 ) ) ;
#23 = CARTESIAN_POINT ( 'NONE',  ( 0.0000000000000000000, 0.0000000000000000000, 6.000000000000000000 ) ) ;
#24 = FACE_OUTER_BOUND ( 'NONE', #134, .T. ) ;
#25 = LINE ( 'NONE', #336, #201 ) ;
#26 = CARTESIAN_POINT ( 'NONE',  ( -5.000000000000000000, 0.0000000000000000000, 6.000000000000000000 ) ) ;
#27 = FILL_AREA_STYLE_COLOUR ( '', #64 ) ;
#28 = DIRECTION ( 'NONE',  ( 1.000000000000000000, 0.0000000000000000000, 0.0000000000000000000 ) ) ;
#29 = DIRECTION ( 'NONE',  ( -0.7071067811865567876, 0.0000000000000000000, -0.7071067811865383579 ) ) ;
#30 = VECTOR ( 'NONE', #335, 1000.000000000000000 ) ;
#31 = CARTESIAN_POINT ( 'NONE',  ( 0.0000000000000000000, 0.0000000000000000000, 0.0000000000000000000 ) ) ;
#32 = MECHANICAL_DESIGN_GEOMETRIC_PRESENTATION_REPRESENTATION (  '', ( #3 ), #77 ) ;
#33 = CARTESIAN_POINT ( 'NONE',  ( 2.575000000000000622, 3.153465507804434798E-16, 5.799999999999998046 ) ) ;
#34 = EDGE_CURVE ( 'NONE', #128, #94, #14, .T. ) ;
#35 = CARTESIAN_POINT ( 'NONE',  ( 0.0000000000000000000, 0.0000000000000000000, 0.0000000000000000000 ) ) ;
#36 = ORIENTED_EDGE ( 'NONE', *, *, #7, .T. ) ;
#37 = ORIENTED_EDGE ( 'NONE', *, *, #160, .T. ) ;
#38 = ORIENTED_EDGE ( 'NONE', *, *, #147, .T. ) ;
#39 = EDGE_LOOP ( 'NONE', ( #206, #66, #174, #176 ) ) ;
#40 = CIRCLE ( 'NONE', #8, 4.900000000000001243 ) ;
#41 = ORIENTED_EDGE ( 'NONE', *, *, #147, .F. ) ;
#42 = DIRECTION ( 'NONE',  ( 1.000000000000000000, 0.0000000000000000000, 0.0000000000000000000 ) ) ;
#43 = CARTESIAN_POINT ( 'NONE',  ( 0.0000000000000000000, 0.0000000000000000000, 6.000000000000000000 ) ) ;
#44 = DIRECTION ( 'NONE',  ( 1.000000000000000000, 0.0000000000000000000, 0.0000000000000000000 ) ) ;
#45 = LINE ( 'NONE', #274, #361 ) ;
#46 =( GEOMETRIC_REPRESENTATION_CONTEXT ( 3 ) GLOBAL_UNCERTAINTY_ASSIGNED_CONTEXT ( ( #237 ) ) GLOBAL_UNIT_ASSIGNED_CONTEXT ( ( #325, #17, #316 ) ) REPRESENTATION_CONTEXT ( 'NONE', 'WORKASPACE' ) );
#47 = FACE_BOUND ( 'NONE', #120, .T. ) ;
#48 = CYLINDRICAL_SURFACE ( 'NONE', #333, 2.575000000000000622 ) ;
#49 = DIRECTION ( 'NONE',  ( -1.000000000000000000, 0.0000000000000000000, 0.0000000000000000000 ) ) ;
#50 = AXIS2_PLACEMENT_3D ( 'NONE', #55, #228, #252 ) ;
#51 = DIRECTION ( 'NONE',  ( 1.000000000000000000, 0.0000000000000000000, 0.0000000000000000000 ) ) ;
#52 = DIRECTION ( 'NONE',  ( 1.000000000000000000, 0.0000000000000000000, 0.0000000000000000000 ) ) ;
#53 = CARTESIAN_POINT ( 'NONE',  ( 5.000000000000000000, 0.0000000000000000000, 0.1000000000000020040 ) ) ;
#54 = SURFACE_STYLE_USAGE ( .BOTH. , #310 ) ;
#55 = CARTESIAN_POINT ( 'NONE',  ( 0.0000000000000000000, 0.0000000000000000000, 5.799999999999998046 ) ) ;
#56 = FACE_OUTER_BOUND ( 'NONE', #270, .T. ) ;
#57 = VECTOR ( 'NONE', #72, 1000.000000000000000 ) ;
#58 = CARTESIAN_POINT ( 'NONE',  ( 0.0000000000000000000, 0.0000000000000000000, 0.1000000000000020040 ) ) ;
#59 = FILL_AREA_STYLE ('',( #144 ) ) ;
#60 = ORIENTED_EDGE ( 'NONE', *, *, #68, .T. ) ;
#61 = ORIENTED_EDGE ( 'NONE', *, *, #269, .F. ) ;
#62 = VECTOR ( 'NONE', #29, 1000.000000000000000 ) ;
#63 = ORIENTED_EDGE ( 'NONE', *, *, #143, .F. ) ;
#64 = COLOUR_RGB ( '',0.8666666666666666963, 0.8666666666666666963, 0.8901960784313724950 ) ;
#65 = ORIENTED_EDGE ( 'NONE', *, *, #221, .T. ) ;
#66 = ORIENTED_EDGE ( 'NONE', *, *, #292, .T. ) ;
#67 =( NAMED_UNIT ( * ) SI_UNIT ( $, .STERADIAN. ) SOLID_ANGLE_UNIT ( ) );
#68 = EDGE_CURVE ( 'NONE', #236, #262, #267, .T. ) ;
#69 = DIRECTION ( 'NONE',  ( 1.000000000000000000, 0.0000000000000000000, 0.0000000000000000000 ) ) ;
#70 = CARTESIAN_POINT ( 'NONE',  ( -2.575000000000000622, 0.0000000000000000000, 5.799999999999998046 ) ) ;
#71 = CARTESIAN_POINT ( 'NONE',  ( -2.575000000000000622, 3.153465507804434798E-16, 5.799999999999998046 ) ) ;
#72 = DIRECTION ( 'NONE',  ( 0.7071067811865513475, 0.0000000000000000000, 0.7071067811865436870 ) ) ;
#73 = EDGE_CURVE ( 'NONE', #18, #326, #314, .T. ) ;
#74 = CIRCLE ( 'NONE', #122, 5.000000000000000000 ) ;
#75 = ORIENTED_EDGE ( 'NONE', *, *, #235, .T. ) ;
#76 = DIRECTION ( 'NONE',  ( -1.000000000000000000, 0.0000000000000000000, 0.0000000000000000000 ) ) ;
#77 =( GEOMETRIC_REPRESENTATION_CONTEXT ( 3 ) GLOBAL_UNCERTAINTY_ASSIGNED_CONTEXT ( ( #321 ) ) GLOBAL_UNIT_ASSIGNED_CONTEXT ( ( #251, #168, #362 ) ) REPRESENTATION_CONTEXT ( 'NONE', 'WORKASPACE' ) );
#78 = ORIENTED_EDGE ( 'NONE', *, *, #282, .F. ) ;
#79 = PRODUCT_DEFINITION ( 'UNKNOWN', '', #322, #123 ) ;
#80 = DIRECTION ( 'NONE',  ( 1.000000000000000000, 0.0000000000000000000, 0.0000000000000000000 ) ) ;
#81 = FACE_OUTER_BOUND ( 'NONE', #180, .T. ) ;
#82 = ADVANCED_FACE ( 'NONE', ( #47, #192 ), #159, .T. ) ;
#83 = ADVANCED_FACE ( 'NONE', ( #24 ), #358, .T. ) ;
#84 = VECTOR ( 'NONE', #258, 1000.000000000000000 ) ;
#85 = FACE_OUTER_BOUND ( 'NONE', #158, .T. ) ;
#86 = DIRECTION ( 'NONE',  ( 1.000000000000000000, 0.0000000000000000000, 0.0000000000000000000 ) ) ;
#87 = PLANE ( 'NONE',  #175 ) ;
#88 = DIRECTION ( 'NONE',  ( 1.000000000000000000, 0.0000000000000000000, 0.0000000000000000000 ) ) ;
#89 = PRODUCT_RELATED_PRODUCT_CATEGORY ( 'part', '', ( #21 ) ) ;
#90 =( NAMED_UNIT ( * ) PLANE_ANGLE_UNIT ( ) SI_UNIT ( $, .RADIAN. ) );
#91 = LINE ( 'NONE', #167, #102 ) ;
#92 = AXIS2_PLACEMENT_3D ( 'NONE', #22, #244, #272 ) ;
#93 = ORIENTED_EDGE ( 'NONE', *, *, #127, .F. ) ;
#94 = VERTEX_POINT ( 'NONE', #278 ) ;
#95 = EDGE_CURVE ( 'NONE', #151, #105, #74, .T. ) ;
#96 = ORIENTED_EDGE ( 'NONE', *, *, #166, .F. ) ;
#97 = CONICAL_SURFACE ( 'NONE', #130, 2.575000000000000622, 0.7853981633974537191 ) ;
#98 = ORIENTED_EDGE ( 'NONE', *, *, #73, .F. ) ;
#99 = SURFACE_SIDE_STYLE ('',( #115 ) ) ;
#100 = ORIENTED_EDGE ( 'NONE', *, *, #179, .T. ) ;
#101 = CARTESIAN_POINT ( 'NONE',  ( 2.575000000000000622, 0.0000000000000000000, 5.799999999999998046 ) ) ;
#102 = VECTOR ( 'NONE', #284, 1000.000000000000000 ) ;
#103 = DIRECTION ( 'NONE',  ( 0.0000000000000000000, 0.0000000000000000000, 1.000000000000000000 ) ) ;
#104 = DIRECTION ( 'NONE',  ( 1.000000000000000000, 0.0000000000000000000, 0.0000000000000000000 ) ) ;
#105 = VERTEX_POINT ( 'NONE', #328 ) ;
#106 = DIRECTION ( 'NONE',  ( 0.0000000000000000000, 0.0000000000000000000, 1.000000000000000000 ) ) ;
#107 = LINE ( 'NONE', #101, #57 ) ;
#108 = AXIS2_PLACEMENT_3D ( 'NONE', #23, #103, #69 ) ;
#109 = CARTESIAN_POINT ( 'NONE',  ( 4.899999999999996803, 0.0000000000000000000, 0.0000000000000000000 ) ) ;
#110 = ADVANCED_FACE ( 'NONE', ( #222 ), #129, .F. ) ;
#111 = CARTESIAN_POINT ( 'NONE',  ( 4.900000000000001243, 6.062001655779399497E-16, 6.000000000000000000 ) ) ;
#112 = AXIS2_PLACEMENT_3D ( 'NONE', #58, #281, #51 ) ;
#113 = PRESENTATION_STYLE_ASSIGNMENT (( #54 ) ) ;
#114 = CARTESIAN_POINT ( 'NONE',  ( 5.000000000000000000, 6.123233995736766282E-16, 5.900000000000003908 ) ) ;
#115 = SURFACE_STYLE_FILL_AREA ( #59 ) ;
#116 = DIRECTION ( 'NONE',  ( 1.000000000000000000, 0.0000000000000000000, 0.0000000000000000000 ) ) ;
#117 = DIRECTION ( 'NONE',  ( -1.000000000000000000, 0.0000000000000000000, 0.0000000000000000000 ) ) ;
#118 = AXIS2_PLACEMENT_3D ( 'NONE', #187, #357, #215 ) ;
#119 = EDGE_LOOP ( 'NONE', ( #60, #75 ) ) ;
#120 = EDGE_LOOP ( 'NONE', ( #263, #298 ) ) ;
#121 = EDGE_LOOP ( 'NONE', ( #11, #41, #210, #208 ) ) ;
#122 = AXIS2_PLACEMENT_3D ( 'NONE', #131, #276, #104 ) ;
#123 = PRODUCT_DEFINITION_CONTEXT ( 'detailed design', #126, 'design' ) ;
#124 = EDGE_LOOP ( 'NONE', ( #324, #38, #36, #98 ) ) ;
#125 = MECHANICAL_DESIGN_GEOMETRIC_PRESENTATION_REPRESENTATION (  '', ( #207 ), #46 ) ;
#126 = APPLICATION_CONTEXT ( 'automotive_design' ) ;
#127 = EDGE_CURVE ( 'NONE', #105, #156, #304, .T. ) ;
#128 = VERTEX_POINT ( 'NONE', #211 ) ;
#129 = CYLINDRICAL_SURFACE ( 'NONE', #13, 2.575000000000000622 ) ;
#130 = AXIS2_PLACEMENT_3D ( 'NONE', #1, #196, #309 ) ;
#131 = CARTESIAN_POINT ( 'NONE',  ( 0.0000000000000000000, 0.0000000000000000000, 5.900000000000003908 ) ) ;
#132 = VERTEX_POINT ( 'NONE', #271 ) ;
#133 = ADVANCED_FACE ( 'NONE', ( #19 ), #329, .T. ) ;
#134 = EDGE_LOOP ( 'NONE', ( #350, #12, #100, #93 ) ) ;
#135 = VECTOR ( 'NONE', #185, 1000.000000000000000 ) ;
#136 = EDGE_CURVE ( 'NONE', #360, #128, #327, .T. ) ;
#137 = CARTESIAN_POINT ( 'NONE',  ( -5.000000000000000000, 0.0000000000000000000, 0.1000000000000020040 ) ) ;
#138 = FACE_OUTER_BOUND ( 'NONE', #39, .T. ) ;
#139 = DIRECTION ( 'NONE',  ( 0.0000000000000000000, 0.0000000000000000000, 1.000000000000000000 ) ) ;
#140 = DIRECTION ( 'NONE',  ( 0.0000000000000000000, 0.0000000000000000000, -1.000000000000000000 ) ) ;
#141 = DIRECTION ( 'NONE',  ( -0.0000000000000000000, -0.0000000000000000000, 1.000000000000000000 ) ) ;
#142 = LINE ( 'NONE', #307, #30 ) ;
#143 = EDGE_CURVE ( 'NONE', #360, #234, #195, .T. ) ;
#144 = FILL_AREA_STYLE_COLOUR ( '', #154 ) ;
#145 = LINE ( 'NONE', #259, #313 ) ;
#146 = AXIS2_PLACEMENT_3D ( 'NONE', #216, #247, #49 ) ;
#147 = EDGE_CURVE ( 'NONE', #234, #360, #205, .T. ) ;
#148 = ORIENTED_EDGE ( 'NONE', *, *, #184, .F. ) ;
#149 = EDGE_LOOP ( 'NONE', ( #347, #319, #203, #240 ) ) ;
#150 = ORIENTED_EDGE ( 'NONE', *, *, #143, .T. ) ;
#151 = VERTEX_POINT ( 'NONE', #114 ) ;
#152 = AXIS2_PLACEMENT_3D ( 'NONE', #225, #254, #80 ) ;
#153 = CLOSED_SHELL ( 'NONE', ( #253, #317, #133, #305, #83, #82, #279, #265, #110, #214, #290, #351 ) ) ;
#154 = COLOUR_RGB ( '',0.8666666666666666963, 0.8666666666666666963, 0.8901960784313724950 ) ;
#155 = DIRECTION ( 'NONE',  ( 0.0000000000000000000, 0.0000000000000000000, 1.000000000000000000 ) ) ;
#156 = VERTEX_POINT ( 'NONE', #137 ) ;
#157 = AXIS2_PLACEMENT_3D ( 'NONE', #217, #155, #44 ) ;
#158 = EDGE_LOOP ( 'NONE', ( #61, #190, #204, #65 ) ) ;
#159 = PLANE ( 'NONE',  #92 ) ;
#160 = EDGE_CURVE ( 'NONE', #242, #239, #260, .T. ) ;
#161 = SURFACE_STYLE_FILL_AREA ( #170 ) ;
#162 = DIRECTION ( 'NONE',  ( 1.000000000000000000, 0.0000000000000000000, 0.0000000000000000000 ) ) ;
#163 = CARTESIAN_POINT ( 'NONE',  ( 0.0000000000000000000, 0.0000000000000000000, 5.900000000000003908 ) ) ;
#164 = CARTESIAN_POINT ( 'NONE',  ( -4.900000000000001243, 0.0000000000000000000, 6.000000000000000000 ) ) ;
#165 = DIRECTION ( 'NONE',  ( -0.0000000000000000000, -0.0000000000000000000, -1.000000000000000000 ) ) ;
#166 = EDGE_CURVE ( 'NONE', #326, #18, #171, .T. ) ;
#167 = CARTESIAN_POINT ( 'NONE',  ( -5.000000000000000000, 6.123233995736766282E-16, 0.1000000000000020040 ) ) ;
#168 =( NAMED_UNIT ( * ) PLANE_ANGLE_UNIT ( ) SI_UNIT ( $, .RADIAN. ) );
#169 = CARTESIAN_POINT ( 'NONE',  ( -4.900000000000001243, 0.0000000000000000000, 6.000000000000000000 ) ) ;
#170 = FILL_AREA_STYLE ('',( #27 ) ) ;
#171 = CIRCLE ( 'NONE', #344, 2.575000000000000622 ) ;
#172 = DIRECTION ( 'NONE',  ( -0.0000000000000000000, -0.0000000000000000000, -1.000000000000000000 ) ) ;
#173 = AXIS2_PLACEMENT_3D ( 'NONE', #2, #331, #280 ) ;
#174 = ORIENTED_EDGE ( 'NONE', *, *, #286, .F. ) ;
#175 = AXIS2_PLACEMENT_3D ( 'NONE', #306, #106, #334 ) ;
#176 = ORIENTED_EDGE ( 'NONE', *, *, #200, .F. ) ;
#177 = EDGE_CURVE ( 'NONE', #234, #18, #142, .T. ) ;
#178 = ORIENTED_EDGE ( 'NONE', *, *, #7, .F. ) ;
#179 = EDGE_CURVE ( 'NONE', #132, #156, #189, .T. ) ;
#180 = EDGE_LOOP ( 'NONE', ( #63, #15, #78, #293 ) ) ;
#181 = EDGE_LOOP ( 'NONE', ( #330, #346, #10, #354 ) ) ;
#182 = CIRCLE ( 'NONE', #255, 4.899999999999996803 ) ;
#183 = PRESENTATION_STYLE_ASSIGNMENT (( #213 ) ) ;
#184 = EDGE_CURVE ( 'NONE', #239, #156, #91, .T. ) ;
#185 = DIRECTION ( 'NONE',  ( -0.0000000000000000000, -0.0000000000000000000, -1.000000000000000000 ) ) ;
#186 = AXIS2_PLACEMENT_3D ( 'NONE', #35, #268, #42 ) ;
#187 = CARTESIAN_POINT ( 'NONE',  ( 0.0000000000000000000, 0.0000000000000000000, 0.1000000000000020040 ) ) ;
#188 = DIRECTION ( 'NONE',  ( -0.0000000000000000000, -0.0000000000000000000, -1.000000000000000000 ) ) ;
#189 = CIRCLE ( 'NONE', #218, 5.000000000000000000 ) ;
#190 = ORIENTED_EDGE ( 'NONE', *, *, #95, .T. ) ;
#191 = DIRECTION ( 'NONE',  ( 0.7071067811865567876, 8.659560562355046257E-17, -0.7071067811865383579 ) ) ;
#192 = FACE_OUTER_BOUND ( 'NONE', #119, .T. ) ;
#193 = FACE_OUTER_BOUND ( 'NONE', #149, .T. ) ;
#194 = CARTESIAN_POINT ( 'NONE',  ( 0.0000000000000000000, 0.0000000000000000000, 0.0000000000000000000 ) ) ;
#195 = CIRCLE ( 'NONE', #273, 2.575000000000000622 ) ;
#196 = DIRECTION ( 'NONE',  ( 0.0000000000000000000, 0.0000000000000000000, 1.000000000000000000 ) ) ;
#197 = CARTESIAN_POINT ( 'NONE',  ( 0.0000000000000000000, 0.0000000000000000000, 6.000000000000000000 ) ) ;
#198 = DIRECTION ( 'NONE',  ( 1.000000000000000000, 0.0000000000000000000, 0.0000000000000000000 ) ) ;
#199 = DIRECTION ( 'NONE',  ( 0.0000000000000000000, 0.0000000000000000000, 1.000000000000000000 ) ) ;
#200 = EDGE_CURVE ( 'NONE', #236, #105, #202, .T. ) ;
#201 = VECTOR ( 'NONE', #191, 1000.000000000000000 ) ;
#202 = LINE ( 'NONE', #169, #62 ) ;
#203 = ORIENTED_EDGE ( 'NONE', *, *, #200, .T. ) ;
#204 = ORIENTED_EDGE ( 'NONE', *, *, #127, .T. ) ;
#205 = CIRCLE ( 'NONE', #50, 2.575000000000000622 ) ;
#206 = ORIENTED_EDGE ( 'NONE', *, *, #235, .F. ) ;
#207 = STYLED_ITEM ( 'NONE', ( #183 ), #299 ) ;
#208 = ORIENTED_EDGE ( 'NONE', *, *, #34, .F. ) ;
#209 =( LENGTH_UNIT ( ) NAMED_UNIT ( * ) SI_UNIT ( .MILLI., .METRE. ) );
#210 = ORIENTED_EDGE ( 'NONE', *, *, #5, .T. ) ;
#211 = CARTESIAN_POINT ( 'NONE',  ( -2.775000000000004796, 3.398394867633910814E-16, 6.000000000000000000 ) ) ;
#212 = VECTOR ( 'NONE', #363, 1000.000000000000000 ) ;
#213 = SURFACE_STYLE_USAGE ( .BOTH. , #99 ) ;
#214 = ADVANCED_FACE ( 'NONE', ( #224 ), #238, .T. ) ;
#215 = DIRECTION ( 'NONE',  ( 1.000000000000000000, 0.0000000000000000000, 0.0000000000000000000 ) ) ;
#216 = CARTESIAN_POINT ( 'NONE',  ( 0.0000000000000000000, 0.0000000000000000000, 6.000000000000000000 ) ) ;
#217 = CARTESIAN_POINT ( 'NONE',  ( 0.0000000000000000000, 0.0000000000000000000, 0.0000000000000000000 ) ) ;
#218 = AXIS2_PLACEMENT_3D ( 'NONE', #230, #343, #198 ) ;
#219 = CARTESIAN_POINT ( 'NONE',  ( 0.0000000000000000000, 0.0000000000000000000, 6.000000000000000000 ) ) ;
#220 = AXIS2_PLACEMENT_3D ( 'NONE', #302, #188, #162 ) ;
#221 = EDGE_CURVE ( 'NONE', #156, #132, #338, .T. ) ;
#222 = FACE_OUTER_BOUND ( 'NONE', #124, .T. ) ;
#223 = FACE_OUTER_BOUND ( 'NONE', #318, .T. ) ;
#224 = FACE_OUTER_BOUND ( 'NONE', #266, .T. ) ;
#225 = CARTESIAN_POINT ( 'NONE',  ( 0.0000000000000000000, 0.0000000000000000000, 6.000000000000000000 ) ) ;
#226 = CARTESIAN_POINT ( 'NONE',  ( 0.0000000000000000000, 0.0000000000000000000, 0.0000000000000000000 ) ) ;
#227 = CONICAL_SURFACE ( 'NONE', #173, 4.900000000000001243, 0.7853981633974613796 ) ;
#228 = DIRECTION ( 'NONE',  ( 0.0000000000000000000, 0.0000000000000000000, 1.000000000000000000 ) ) ;
#229 = SHAPE_DEFINITION_REPRESENTATION ( #348, #299 ) ;
#230 = CARTESIAN_POINT ( 'NONE',  ( 0.0000000000000000000, 0.0000000000000000000, 0.1000000000000020040 ) ) ;
#231 = EDGE_CURVE ( 'NONE', #239, #242, #182, .T. ) ;
#232 = AXIS2_PLACEMENT_3D ( 'NONE', #163, #339, #246 ) ;
#233 = CYLINDRICAL_SURFACE ( 'NONE', #264, 5.000000000000000000 ) ;
#234 = VERTEX_POINT ( 'NONE', #33 ) ;
#235 = EDGE_CURVE ( 'NONE', #262, #236, #40, .T. ) ;
#236 = VERTEX_POINT ( 'NONE', #164 ) ;
#237 = UNCERTAINTY_MEASURE_WITH_UNIT (LENGTH_MEASURE( 1.000000000000000082E-05 ), #325, 'distance_accuracy_value', 'NONE');
#238 = CONICAL_SURFACE ( 'NONE', #288, 5.000000000000000000, 0.7853981633974569387 ) ;
#239 = VERTEX_POINT ( 'NONE', #337 ) ;
#240 = ORIENTED_EDGE ( 'NONE', *, *, #95, .F. ) ;
#241 = EDGE_CURVE ( 'NONE', #242, #132, #312, .T. ) ;
#242 = VERTEX_POINT ( 'NONE', #109 ) ;
#243 = CARTESIAN_POINT ( 'NONE',  ( 2.575000000000000622, 3.153465507804434798E-16, 0.0000000000000000000 ) ) ;
#244 = DIRECTION ( 'NONE',  ( 0.0000000000000000000, 0.0000000000000000000, 1.000000000000000000 ) ) ;
#245 = ORIENTED_EDGE ( 'NONE', *, *, #231, .T. ) ;
#246 = DIRECTION ( 'NONE',  ( 1.000000000000000000, 0.0000000000000000000, 0.0000000000000000000 ) ) ;
#247 = DIRECTION ( 'NONE',  ( -0.0000000000000000000, -0.0000000000000000000, -1.000000000000000000 ) ) ;
#248 = CONICAL_SURFACE ( 'NONE', #295, 4.900000000000001243, 0.7853981633974613796 ) ;
#249 = DIRECTION ( 'NONE',  ( -1.000000000000000000, 0.0000000000000000000, 0.0000000000000000000 ) ) ;
#250 = CARTESIAN_POINT ( 'NONE',  ( 0.0000000000000000000, 0.0000000000000000000, 6.000000000000000000 ) ) ;
#251 =( LENGTH_UNIT ( ) NAMED_UNIT ( * ) SI_UNIT ( .MILLI., .METRE. ) );
#252 = DIRECTION ( 'NONE',  ( 1.000000000000000000, 0.0000000000000000000, 0.0000000000000000000 ) ) ;
#253 = ADVANCED_FACE ( 'NONE', ( #81 ), #97, .F. ) ;
#254 = DIRECTION ( 'NONE',  ( -0.0000000000000000000, -0.0000000000000000000, -1.000000000000000000 ) ) ;
#255 = AXIS2_PLACEMENT_3D ( 'NONE', #194, #172, #28 ) ;
#256 = DIRECTION ( 'NONE',  ( -0.0000000000000000000, -0.0000000000000000000, -1.000000000000000000 ) ) ;
#257 = DIRECTION ( 'NONE',  ( 1.000000000000000000, 0.0000000000000000000, 0.0000000000000000000 ) ) ;
#258 = DIRECTION ( 'NONE',  ( -0.7071067811865513475, 8.659560562354979697E-17, 0.7071067811865436870 ) ) ;
#259 = CARTESIAN_POINT ( 'NONE',  ( 5.000000000000000000, 6.123233995736766282E-16, 6.000000000000000000 ) ) ;
#260 = CIRCLE ( 'NONE', #349, 4.899999999999996803 ) ;
#261 = ORIENTED_EDGE ( 'NONE', *, *, #221, .F. ) ;
#262 = VERTEX_POINT ( 'NONE', #111 ) ;
#263 = ORIENTED_EDGE ( 'NONE', *, *, #282, .T. ) ;
#264 = AXIS2_PLACEMENT_3D ( 'NONE', #6, #345, #117 ) ;
#265 = ADVANCED_FACE ( 'NONE', ( #85 ), #233, .T. ) ;
#266 = EDGE_LOOP ( 'NONE', ( #148, #323, #320, #261 ) ) ;
#267 = CIRCLE ( 'NONE', #108, 4.900000000000001243 ) ;
#268 = DIRECTION ( 'NONE',  ( 0.0000000000000000000, 0.0000000000000000000, 1.000000000000000000 ) ) ;
#269 = EDGE_CURVE ( 'NONE', #151, #132, #145, .T. ) ;
#270 = EDGE_LOOP ( 'NONE', ( #37, #245 ) ) ;
#271 = CARTESIAN_POINT ( 'NONE',  ( 5.000000000000000000, 6.123233995736766282E-16, 0.1000000000000020040 ) ) ;
#272 = DIRECTION ( 'NONE',  ( 1.000000000000000000, 0.0000000000000000000, -0.0000000000000000000 ) ) ;
#273 = AXIS2_PLACEMENT_3D ( 'NONE', #4, #139, #116 ) ;
#274 = CARTESIAN_POINT ( 'NONE',  ( -2.575000000000000622, 0.0000000000000000000, 6.000000000000000000 ) ) ;
#275 = AXIS2_PLACEMENT_3D ( 'NONE', #277, #199, #52 ) ;
#276 = DIRECTION ( 'NONE',  ( 0.0000000000000000000, 0.0000000000000000000, -1.000000000000000000 ) ) ;
#277 = CARTESIAN_POINT ( 'NONE',  ( 0.0000000000000000000, 0.0000000000000000000, 5.799999999999998046 ) ) ;
#278 = CARTESIAN_POINT ( 'NONE',  ( 2.775000000000004796, 0.0000000000000000000, 6.000000000000000000 ) ) ;
#279 = ADVANCED_FACE ( 'NONE', ( #56, #283 ), #87, .F. ) ;
#280 = DIRECTION ( 'NONE',  ( -1.000000000000000000, 0.0000000000000000000, 0.0000000000000000000 ) ) ;
#281 = DIRECTION ( 'NONE',  ( -0.0000000000000000000, -0.0000000000000000000, 1.000000000000000000 ) ) ;
#282 = EDGE_CURVE ( 'NONE', #94, #128, #20, .T. ) ;
#283 = FACE_BOUND ( 'NONE', #291, .T. ) ;
#284 = DIRECTION ( 'NONE',  ( -0.7071067811865536790, 8.659560562355008046E-17, 0.7071067811865414665 ) ) ;
#285 = DIRECTION ( 'NONE',  ( -0.0000000000000000000, -0.0000000000000000000, -1.000000000000000000 ) ) ;
#286 = EDGE_CURVE ( 'NONE', #105, #151, #359, .T. ) ;
#287 = PRESENTATION_LAYER_ASSIGNMENT (  '', '', ( #207 ) ) ;
#288 = AXIS2_PLACEMENT_3D ( 'NONE', #315, #141, #257 ) ;
#289 = ORIENTED_EDGE ( 'NONE', *, *, #177, .T. ) ;
#290 = ADVANCED_FACE ( 'NONE', ( #193 ), #248, .T. ) ;
#291 = EDGE_LOOP ( 'NONE', ( #296, #355 ) ) ;
#292 = EDGE_CURVE ( 'NONE', #262, #151, #25, .T. ) ;
#293 = ORIENTED_EDGE ( 'NONE', *, *, #5, .F. ) ;
#294 = UNCERTAINTY_MEASURE_WITH_UNIT (LENGTH_MEASURE( 1.000000000000000082E-05 ), #209, 'distance_accuracy_value', 'NONE');
#295 = AXIS2_PLACEMENT_3D ( 'NONE', #197, #140, #249 ) ;
#296 = ORIENTED_EDGE ( 'NONE', *, *, #166, .T. ) ;
#297 =( GEOMETRIC_REPRESENTATION_CONTEXT ( 3 ) GLOBAL_UNCERTAINTY_ASSIGNED_CONTEXT ( ( #294 ) ) GLOBAL_UNIT_ASSIGNED_CONTEXT ( ( #209, #90, #67 ) ) REPRESENTATION_CONTEXT ( 'NONE', 'WORKASPACE' ) );
#298 = ORIENTED_EDGE ( 'NONE', *, *, #34, .T. ) ;
#299 = ADVANCED_BREP_SHAPE_REPRESENTATION ( 'A201 -ø¸ªðý¡øþýýð  òªºûúð 5¿6 üü', ( #341, #186 ), #297 ) ;
#300 = DIRECTION ( 'NONE',  ( -0.0000000000000000000, -0.0000000000000000000, -1.000000000000000000 ) ) ;
#301 = DIRECTION ( 'NONE',  ( -0.0000000000000000000, -0.0000000000000000000, -1.000000000000000000 ) ) ;
#302 = CARTESIAN_POINT ( 'NONE',  ( 0.0000000000000000000, 0.0000000000000000000, 6.000000000000000000 ) ) ;
#303 = CARTESIAN_POINT ( 'NONE',  ( -2.575000000000000622, 0.0000000000000000000, 0.0000000000000000000 ) ) ;
#304 = LINE ( 'NONE', #26, #135 ) ;
#305 = ADVANCED_FACE ( 'NONE', ( #223 ), #48, .F. ) ;
#306 = CARTESIAN_POINT ( 'NONE',  ( 0.0000000000000000000, 0.0000000000000000000, 0.0000000000000000000 ) ) ;
#307 = CARTESIAN_POINT ( 'NONE',  ( 2.575000000000000622, 3.153465507804434798E-16, 6.000000000000000000 ) ) ;
#308 = FACE_OUTER_BOUND ( 'NONE', #121, .T. ) ;
#309 = DIRECTION ( 'NONE',  ( 1.000000000000000000, 0.0000000000000000000, 0.0000000000000000000 ) ) ;
#310 = SURFACE_SIDE_STYLE ('',( #161 ) ) ;
#311 = DIRECTION ( 'NONE',  ( 1.000000000000000000, 0.0000000000000000000, 0.0000000000000000000 ) ) ;
#312 = LINE ( 'NONE', #53, #212 ) ;
#313 = VECTOR ( 'NONE', #165, 1000.000000000000000 ) ;
#314 = CIRCLE ( 'NONE', #157, 2.575000000000000622 ) ;
#315 = CARTESIAN_POINT ( 'NONE',  ( 0.0000000000000000000, 0.0000000000000000000, 0.1000000000000020040 ) ) ;
#316 =( NAMED_UNIT ( * ) SI_UNIT ( $, .STERADIAN. ) SOLID_ANGLE_UNIT ( ) );
#317 = ADVANCED_FACE ( 'NONE', ( #138 ), #227, .T. ) ;
#318 = EDGE_LOOP ( 'NONE', ( #150, #289, #96, #178 ) ) ;
#319 = ORIENTED_EDGE ( 'NONE', *, *, #68, .F. ) ;
#320 = ORIENTED_EDGE ( 'NONE', *, *, #241, .T. ) ;
#321 = UNCERTAINTY_MEASURE_WITH_UNIT (LENGTH_MEASURE( 1.000000000000000082E-05 ), #251, 'distance_accuracy_value', 'NONE');
#322 = PRODUCT_DEFINITION_FORMATION_WITH_SPECIFIED_SOURCE ( 'ANY', '', #21, .NOT_KNOWN. ) ;
#323 = ORIENTED_EDGE ( 'NONE', *, *, #160, .F. ) ;
#324 = ORIENTED_EDGE ( 'NONE', *, *, #177, .F. ) ;
#325 =( LENGTH_UNIT ( ) NAMED_UNIT ( * ) SI_UNIT ( .MILLI., .METRE. ) );
#326 = VERTEX_POINT ( 'NONE', #303 ) ;
#327 = LINE ( 'NONE', #71, #84 ) ;
#328 = CARTESIAN_POINT ( 'NONE',  ( -5.000000000000000000, 0.0000000000000000000, 5.900000000000003908 ) ) ;
#329 = CONICAL_SURFACE ( 'NONE', #118, 5.000000000000000000, 0.7853981633974569387 ) ;
#330 = ORIENTED_EDGE ( 'NONE', *, *, #231, .F. ) ;
#331 = DIRECTION ( 'NONE',  ( 0.0000000000000000000, 0.0000000000000000000, -1.000000000000000000 ) ) ;
#332 = DIRECTION ( 'NONE',  ( -1.000000000000000000, 0.0000000000000000000, 0.0000000000000000000 ) ) ;
#333 = AXIS2_PLACEMENT_3D ( 'NONE', #219, #256, #76 ) ;
#334 = DIRECTION ( 'NONE',  ( 1.000000000000000000, 0.0000000000000000000, -0.0000000000000000000 ) ) ;
#335 = DIRECTION ( 'NONE',  ( -0.0000000000000000000, -0.0000000000000000000, -1.000000000000000000 ) ) ;
#336 = CARTESIAN_POINT ( 'NONE',  ( 4.900000000000001243, 6.000769315822032712E-16, 6.000000000000000000 ) ) ;
#337 = CARTESIAN_POINT ( 'NONE',  ( -4.899999999999996803, 6.062001655779395553E-16, 0.0000000000000000000 ) ) ;
#338 = CIRCLE ( 'NONE', #112, 5.000000000000000000 ) ;
#339 = DIRECTION ( 'NONE',  ( 0.0000000000000000000, 0.0000000000000000000, -1.000000000000000000 ) ) ;
#340 = DIRECTION ( 'NONE',  ( 0.0000000000000000000, 0.0000000000000000000, 1.000000000000000000 ) ) ;
#341 = MANIFOLD_SOLID_BREP ( 'Ôàñêà2', #153 ) ;
#342 = DIRECTION ( 'NONE',  ( 0.0000000000000000000, 0.0000000000000000000, 1.000000000000000000 ) ) ;
#343 = DIRECTION ( 'NONE',  ( -0.0000000000000000000, -0.0000000000000000000, 1.000000000000000000 ) ) ;
#344 = AXIS2_PLACEMENT_3D ( 'NONE', #226, #340, #86 ) ;
#345 = DIRECTION ( 'NONE',  ( -0.0000000000000000000, -0.0000000000000000000, -1.000000000000000000 ) ) ;
#346 = ORIENTED_EDGE ( 'NONE', *, *, #184, .T. ) ;
#347 = ORIENTED_EDGE ( 'NONE', *, *, #292, .F. ) ;
#348 = PRODUCT_DEFINITION_SHAPE ( 'NONE', 'NONE',  #79 ) ;
#349 = AXIS2_PLACEMENT_3D ( 'NONE', #31, #285, #311 ) ;
#350 = ORIENTED_EDGE ( 'NONE', *, *, #286, .T. ) ;
#351 = ADVANCED_FACE ( 'NONE', ( #308 ), #364, .F. ) ;
#352 = PRODUCT_CONTEXT ( 'NONE', #16, 'mechanical' ) ;
#353 = PRESENTATION_LAYER_ASSIGNMENT (  '', '', ( #3 ) ) ;
#354 = ORIENTED_EDGE ( 'NONE', *, *, #241, .F. ) ;
#355 = ORIENTED_EDGE ( 'NONE', *, *, #73, .T. ) ;
#356 = APPLICATION_PROTOCOL_DEFINITION ( 'draft international standard', 'automotive_design', 1998, #126 ) ;
#357 = DIRECTION ( 'NONE',  ( -0.0000000000000000000, -0.0000000000000000000, 1.000000000000000000 ) ) ;
#358 = CYLINDRICAL_SURFACE ( 'NONE', #146, 5.000000000000000000 ) ;
#359 = CIRCLE ( 'NONE', #232, 5.000000000000000000 ) ;
#360 = VERTEX_POINT ( 'NONE', #70 ) ;
#361 = VECTOR ( 'NONE', #300, 1000.000000000000000 ) ;
#362 =( NAMED_UNIT ( * ) SI_UNIT ( $, .STERADIAN. ) SOLID_ANGLE_UNIT ( ) );
#363 = DIRECTION ( 'NONE',  ( 0.7071067811865536790, 0.0000000000000000000, 0.7071067811865414665 ) ) ;
#364 = CONICAL_SURFACE ( 'NONE', #275, 2.575000000000000622, 0.7853981633974537191 ) ;
ENDSEC;
END-ISO-10303-21;
