ISO-10303-21;
HEADER;
FILE_DESCRIPTION (( 'STEP AP214' ),
    '1' );
FILE_NAME ('B568 Çàãëóøêà êðåïåæíîãî îòâåðñòèÿ ïîä MGR7 (ñåðàÿ).STEP',
    '2026-01-28T08:03:05',
    ( '' ),
    ( '' ),
    'SwSTEP 2.0',
    'SolidWorks 2026',
    '' );
FILE_SCHEMA (( 'AUTOMOTIVE_DESIGN' ));
ENDSEC;

DATA;
#1 = CIRCLE ( 'NONE', #132, 1.000000000000000000 ) ;
#2 = FACE_OUTER_BOUND ( 'NONE', #271, .T. ) ;
#3 = PRODUCT ( 'B568 \X2\041704300433043b04430448043a0430\X0\ \X2\043a04400435043f04350436043d043e0433043e\X0\ \X2\043e0442043204350440044104420438044f\X0\ \X2\043f043e0434\X0\ MGR7 (\X2\0441043504400430044f\X0\)', 'B568 \X2\041704300433043b04430448043a0430\X0\ \X2\043a04400435043f04350436043d043e0433043e\X0\ \X2\043e0442043204350440044104420438044f\X0\ \X2\043f043e0434\X0\ MGR7 (\X2\0441043504400430044f\X0\)', '', ( #29 ) ) ;
#4 = EDGE_CURVE ( 'NONE', #192, #247, #165, .T. ) ;
#5 = ORIENTED_EDGE ( 'NONE', *, *, #278, .F. ) ;
#6 = CARTESIAN_POINT ( 'NONE',  ( 0.000000000000000000, 0.000000000000000000, 1.399999999999999911 ) ) ;
#7 = AXIS2_PLACEMENT_3D ( 'NONE', #127, #15, #100 ) ;
#8 = ORIENTED_EDGE ( 'NONE', *, *, #70, .T. ) ;
#9 = DIRECTION ( 'NONE',  ( 1.000000000000000000, 0.000000000000000000, 0.000000000000000000 ) ) ;
#10 = DIRECTION ( 'NONE',  ( 0.000000000000000000, -0.000000000000000000, -1.000000000000000000 ) ) ;
#11 = ORIENTED_EDGE ( 'NONE', *, *, #146, .F. ) ;
#12 =( NAMED_UNIT ( * ) PLANE_ANGLE_UNIT ( ) SI_UNIT ( $, .RADIAN. ) );
#13 = DIRECTION ( 'NONE',  ( 1.000000000000000000, 0.000000000000000000, 0.000000000000000000 ) ) ;
#14 =( LENGTH_UNIT ( ) NAMED_UNIT ( * ) SI_UNIT ( .MILLI., .METRE. ) );
#15 = DIRECTION ( 'NONE',  ( -0.000000000000000000, 0.000000000000000000, 1.000000000000000000 ) ) ;
#16 = FACE_OUTER_BOUND ( 'NONE', #72, .T. ) ;
#17 = CARTESIAN_POINT ( 'NONE',  ( 0.000000000000000000, 0.000000000000000000, 1.500000000000000000 ) ) ;
#18 = AXIS2_PLACEMENT_3D ( 'NONE', #64, #206, #140 ) ;
#19 = PLANE ( 'NONE',  #7 ) ;
#20 = DIRECTION ( 'NONE',  ( -0.000000000000000000, -0.000000000000000000, -1.000000000000000000 ) ) ;
#21 = PRODUCT_DEFINITION_CONTEXT ( 'detailed design', #254, 'design' ) ;
#22 = FACE_OUTER_BOUND ( 'NONE', #264, .T. ) ;
#23 = DIRECTION ( 'NONE',  ( 1.000000000000000000, 0.000000000000000000, 0.000000000000000000 ) ) ;
#24 = PLANE ( 'NONE',  #303 ) ;
#25 = AXIS2_PLACEMENT_3D ( 'NONE', #6, #177, #200 ) ;
#26 = FILL_AREA_STYLE ('',( #95 ) ) ;
#27 = ORIENTED_EDGE ( 'NONE', *, *, #292, .F. ) ;
#28 = DIRECTION ( 'NONE',  ( -0.000000000000000000, 0.000000000000000000, 1.000000000000000000 ) ) ;
#29 = PRODUCT_CONTEXT ( 'NONE', #44, 'mechanical' ) ;
#30 = DIRECTION ( 'NONE',  ( -0.000000000000000000, 0.000000000000000000, 1.000000000000000000 ) ) ;
#31 = FACE_OUTER_BOUND ( 'NONE', #196, .T. ) ;
#32 = VERTEX_POINT ( 'NONE', #86 ) ;
#33 = DIRECTION ( 'NONE',  ( -0.000000000000000000, 0.000000000000000000, 1.000000000000000000 ) ) ;
#34 = EDGE_CURVE ( 'NONE', #98, #32, #221, .T. ) ;
#35 = DIRECTION ( 'NONE',  ( -1.000000000000000000, 0.000000000000000000, 0.000000000000000000 ) ) ;
#36 = DIRECTION ( 'NONE',  ( 1.000000000000000000, 0.000000000000000000, 0.000000000000000000 ) ) ;
#37 = DIRECTION ( 'NONE',  ( 0.000000000000000000, 0.000000000000000000, -1.000000000000000000 ) ) ;
#38 = DIRECTION ( 'NONE',  ( 1.000000000000000000, 0.000000000000000000, 0.000000000000000000 ) ) ;
#39 = ADVANCED_FACE ( 'NONE', ( #105 ), #90, .T. ) ;
#40 = LINE ( 'NONE', #138, #285 ) ;
#41 = EDGE_CURVE ( 'NONE', #94, #263, #257, .T. ) ;
#42 = DIRECTION ( 'NONE',  ( -0.000000000000000000, 0.000000000000000000, 1.000000000000000000 ) ) ;
#43 = CIRCLE ( 'NONE', #149, 0.1000000000000000472 ) ;
#44 = APPLICATION_CONTEXT ( 'automotive_design' ) ;
#45 = MECHANICAL_DESIGN_GEOMETRIC_PRESENTATION_REPRESENTATION (  '', ( #180 ), #209 ) ;
#46 = ORIENTED_EDGE ( 'NONE', *, *, #151, .F. ) ;
#47 = VERTEX_POINT ( 'NONE', #309 ) ;
#48 = DIRECTION ( 'NONE',  ( -0.000000000000000000, 0.000000000000000000, 1.000000000000000000 ) ) ;
#49 = ORIENTED_EDGE ( 'NONE', *, *, #307, .T. ) ;
#50 = DIRECTION ( 'NONE',  ( 1.000000000000000000, 0.000000000000000000, 0.000000000000000000 ) ) ;
#51 = AXIS2_PLACEMENT_3D ( 'NONE', #175, #124, #298 ) ;
#52 = ORIENTED_EDGE ( 'NONE', *, *, #211, .F. ) ;
#53 = CARTESIAN_POINT ( 'NONE',  ( 1.100000000000000089, 0.000000000000000000, 1.500000000000000000 ) ) ;
#54 = CARTESIAN_POINT ( 'NONE',  ( -1.000000000000000000, 0.000000000000000000, 1.199999999999999956 ) ) ;
#55 = TOROIDAL_SURFACE ( 'NONE', #112, 2.050000000000000266, 0.1000000000000000056 ) ;
#56 = CARTESIAN_POINT ( 'NONE',  ( 0.000000000000000000, 0.000000000000000000, 1.199999999999999956 ) ) ;
#57 = CARTESIAN_POINT ( 'NONE',  ( 0.000000000000000000, 0.000000000000000000, 1.399999999999999911 ) ) ;
#58 = DIRECTION ( 'NONE',  ( 0.000000000000000000, -0.000000000000000000, -1.000000000000000000 ) ) ;
#59 = AXIS2_PLACEMENT_3D ( 'NONE', #102, #33, #129 ) ;
#60 = DIRECTION ( 'NONE',  ( 1.000000000000000000, 0.000000000000000000, 0.000000000000000000 ) ) ;
#61 = CARTESIAN_POINT ( 'NONE',  ( -2.050000000000000266, 2.510525938252074186E-16, 1.399999999999999911 ) ) ;
#62 = ORIENTED_EDGE ( 'NONE', *, *, #134, .T. ) ;
#63 = AXIS2_PLACEMENT_3D ( 'NONE', #57, #157, #249 ) ;
#64 = CARTESIAN_POINT ( 'NONE',  ( 0.000000000000000000, 0.000000000000000000, 1.399999999999999911 ) ) ;
#65 = ADVANCED_FACE ( 'NONE', ( #253, #280 ), #24, .T. ) ;
#66 = AXIS2_PLACEMENT_3D ( 'NONE', #220, #28, #300 ) ;
#67 = EDGE_CURVE ( 'NONE', #32, #210, #40, .T. ) ;
#68 = EDGE_LOOP ( 'NONE', ( #256, #125, #148, #176 ) ) ;
#69 = CIRCLE ( 'NONE', #59, 2.149999999999999911 ) ;
#70 = EDGE_CURVE ( 'NONE', #94, #192, #109, .T. ) ;
#71 = ORIENTED_EDGE ( 'NONE', *, *, #168, .T. ) ;
#72 = EDGE_LOOP ( 'NONE', ( #62, #75 ) ) ;
#73 = DIRECTION ( 'NONE',  ( -0.000000000000000000, 0.000000000000000000, 1.000000000000000000 ) ) ;
#74 = DIRECTION ( 'NONE',  ( 0.000000000000000000, -0.000000000000000000, -1.000000000000000000 ) ) ;
#75 = ORIENTED_EDGE ( 'NONE', *, *, #151, .T. ) ;
#76 = CYLINDRICAL_SURFACE ( 'NONE', #143, 1.000000000000000000 ) ;
#77 = ORIENTED_EDGE ( 'NONE', *, *, #119, .F. ) ;
#78 = SHAPE_DEFINITION_REPRESENTATION ( #259, #194 ) ;
#79 = DIRECTION ( 'NONE',  ( -0.000000000000000000, 0.000000000000000000, 1.000000000000000000 ) ) ;
#80 = SURFACE_SIDE_STYLE ('',( #265 ) ) ;
#81 = UNCERTAINTY_MEASURE_WITH_UNIT (LENGTH_MEASURE( 1.000000000000000082E-05 ), #14, 'distance_accuracy_value', 'NONE');
#82 = LINE ( 'NONE', #267, #260 ) ;
#83 = ORIENTED_EDGE ( 'NONE', *, *, #85, .F. ) ;
#84 = PRODUCT_DEFINITION_FORMATION_WITH_SPECIFIED_SOURCE ( 'ANY', '', #3, .NOT_KNOWN. ) ;
#85 = EDGE_CURVE ( 'NONE', #291, #98, #186, .T. ) ;
#86 = CARTESIAN_POINT ( 'NONE',  ( -1.000000000000000000, 0.000000000000000000, 1.399999999999999911 ) ) ;
#87 = ORIENTED_EDGE ( 'NONE', *, *, #4, .T. ) ;
#88 = ADVANCED_FACE ( 'NONE', ( #286 ), #55, .T. ) ;
#89 = DIRECTION ( 'NONE',  ( 0.000000000000000000, -1.000000000000000000, 0.000000000000000000 ) ) ;
#90 = TOROIDAL_SURFACE ( 'NONE', #137, 2.050000000000000266, 0.1000000000000000056 ) ;
#91 = ADVANCED_FACE ( 'NONE', ( #2 ), #189, .F. ) ;
#92 = AXIS2_PLACEMENT_3D ( 'NONE', #289, #166, #234 ) ;
#93 = VERTEX_POINT ( 'NONE', #115 ) ;
#94 = VERTEX_POINT ( 'NONE', #96 ) ;
#95 = FILL_AREA_STYLE_COLOUR ( '', #283 ) ;
#96 = CARTESIAN_POINT ( 'NONE',  ( 2.149999999999999911, 2.632990618166809235E-16, 1.399999999999999911 ) ) ;
#97 = DIRECTION ( 'NONE',  ( 1.000000000000000000, 0.000000000000000000, 0.000000000000000000 ) ) ;
#98 = VERTEX_POINT ( 'NONE', #251 ) ;
#99 = CYLINDRICAL_SURFACE ( 'NONE', #130, 2.149999999999999911 ) ;
#100 = DIRECTION ( 'NONE',  ( 1.000000000000000000, 0.000000000000000000, 0.000000000000000000 ) ) ;
#101 = CIRCLE ( 'NONE', #199, 0.1000000000000000472 ) ;
#102 = CARTESIAN_POINT ( 'NONE',  ( 0.000000000000000000, 0.000000000000000000, 0.000000000000000000 ) ) ;
#103 = DIRECTION ( 'NONE',  ( -0.000000000000000000, -0.000000000000000000, -1.000000000000000000 ) ) ;
#104 = CARTESIAN_POINT ( 'NONE',  ( 2.050000000000000266, 0.000000000000000000, 1.399999999999999911 ) ) ;
#105 = FACE_OUTER_BOUND ( 'NONE', #162, .T. ) ;
#106 = CARTESIAN_POINT ( 'NONE',  ( 0.000000000000000000, 0.000000000000000000, 1.399999999999999911 ) ) ;
#107 = AXIS2_PLACEMENT_3D ( 'NONE', #131, #58, #50 ) ;
#108 = ORIENTED_EDGE ( 'NONE', *, *, #292, .T. ) ;
#109 = CIRCLE ( 'NONE', #18, 2.149999999999999911 ) ;
#110 = DIRECTION ( 'NONE',  ( -0.000000000000000000, -0.000000000000000000, -1.000000000000000000 ) ) ;
#111 = CIRCLE ( 'NONE', #261, 1.100000000000000089 ) ;
#112 = AXIS2_PLACEMENT_3D ( 'NONE', #233, #288, #114 ) ;
#113 = PRODUCT_RELATED_PRODUCT_CATEGORY ( 'part', '', ( #3 ) ) ;
#114 = DIRECTION ( 'NONE',  ( 1.000000000000000000, 0.000000000000000000, 0.000000000000000000 ) ) ;
#115 = CARTESIAN_POINT ( 'NONE',  ( 2.050000000000000266, 0.000000000000000000, 1.500000000000000000 ) ) ;
#116 = ORIENTED_EDGE ( 'NONE', *, *, #278, .T. ) ;
#117 =( LENGTH_UNIT ( ) NAMED_UNIT ( * ) SI_UNIT ( .MILLI., .METRE. ) );
#118 = VECTOR ( 'NONE', #150, 1000.000000000000000 ) ;
#119 = EDGE_CURVE ( 'NONE', #192, #47, #195, .T. ) ;
#120 = EDGE_LOOP ( 'NONE', ( #154, #128 ) ) ;
#121 = CARTESIAN_POINT ( 'NONE',  ( 0.000000000000000000, 0.000000000000000000, 0.000000000000000000 ) ) ;
#122 = CYLINDRICAL_SURFACE ( 'NONE', #250, 2.149999999999999911 ) ;
#123 =( NAMED_UNIT ( * ) SI_UNIT ( $, .STERADIAN. ) SOLID_ANGLE_UNIT ( ) );
#124 = DIRECTION ( 'NONE',  ( -0.000000000000000000, 0.000000000000000000, 1.000000000000000000 ) ) ;
#125 = ORIENTED_EDGE ( 'NONE', *, *, #70, .F. ) ;
#126 = DIRECTION ( 'NONE',  ( 1.000000000000000000, 0.000000000000000000, 0.000000000000000000 ) ) ;
#127 = CARTESIAN_POINT ( 'NONE',  ( 0.000000000000000000, 0.000000000000000000, 0.000000000000000000 ) ) ;
#128 = ORIENTED_EDGE ( 'NONE', *, *, #211, .T. ) ;
#129 = DIRECTION ( 'NONE',  ( 1.000000000000000000, 0.000000000000000000, 0.000000000000000000 ) ) ;
#130 = AXIS2_PLACEMENT_3D ( 'NONE', #201, #269, #133 ) ;
#131 = CARTESIAN_POINT ( 'NONE',  ( 0.000000000000000000, 0.000000000000000000, 1.500000000000000000 ) ) ;
#132 = AXIS2_PLACEMENT_3D ( 'NONE', #293, #79, #178 ) ;
#133 = DIRECTION ( 'NONE',  ( -1.000000000000000000, 0.000000000000000000, 0.000000000000000000 ) ) ;
#134 = EDGE_CURVE ( 'NONE', #210, #282, #187, .T. ) ;
#135 = UNCERTAINTY_MEASURE_WITH_UNIT (LENGTH_MEASURE( 1.000000000000000082E-05 ), #117, 'distance_accuracy_value', 'NONE');
#136 = CARTESIAN_POINT ( 'NONE',  ( 2.149999999999999911, 2.632990618166809235E-16, 0.000000000000000000 ) ) ;
#137 = AXIS2_PLACEMENT_3D ( 'NONE', #204, #182, #38 ) ;
#138 = CARTESIAN_POINT ( 'NONE',  ( -1.000000000000000000, 0.000000000000000000, 1.500000000000000000 ) ) ;
#139 = ADVANCED_FACE ( 'NONE', ( #239 ), #76, .F. ) ;
#140 = DIRECTION ( 'NONE',  ( 1.000000000000000000, 0.000000000000000000, 0.000000000000000000 ) ) ;
#141 = CARTESIAN_POINT ( 'NONE',  ( 2.149999999999999911, 2.632990618166809235E-16, 1.500000000000000000 ) ) ;
#142 = CIRCLE ( 'NONE', #51, 2.050000000000000266 ) ;
#143 = AXIS2_PLACEMENT_3D ( 'NONE', #216, #103, #153 ) ;
#144 = EDGE_LOOP ( 'NONE', ( #236, #237, #71, #77 ) ) ;
#145 = DIRECTION ( 'NONE',  ( 1.000000000000000000, 0.000000000000000000, 0.000000000000000000 ) ) ;
#146 = EDGE_CURVE ( 'NONE', #93, #247, #142, .T. ) ;
#147 = EDGE_LOOP ( 'NONE', ( #52, #49, #217, #83 ) ) ;
#148 = ORIENTED_EDGE ( 'NONE', *, *, #262, .T. ) ;
#149 = AXIS2_PLACEMENT_3D ( 'NONE', #244, #268, #193 ) ;
#150 = DIRECTION ( 'NONE',  ( -0.000000000000000000, -0.000000000000000000, -1.000000000000000000 ) ) ;
#151 = EDGE_CURVE ( 'NONE', #282, #210, #1, .T. ) ;
#152 = EDGE_LOOP ( 'NONE', ( #258, #8, #243, #108 ) ) ;
#153 = DIRECTION ( 'NONE',  ( -1.000000000000000000, 0.000000000000000000, 0.000000000000000000 ) ) ;
#154 = ORIENTED_EDGE ( 'NONE', *, *, #155, .T. ) ;
#155 = EDGE_CURVE ( 'NONE', #291, #255, #111, .T. ) ;
#156 =( NAMED_UNIT ( * ) PLANE_ANGLE_UNIT ( ) SI_UNIT ( $, .RADIAN. ) );
#157 = DIRECTION ( 'NONE',  ( -0.000000000000000000, 0.000000000000000000, 1.000000000000000000 ) ) ;
#158 = CIRCLE ( 'NONE', #107, 1.100000000000000089 ) ;
#159 = CARTESIAN_POINT ( 'NONE',  ( 0.000000000000000000, 0.000000000000000000, 1.500000000000000000 ) ) ;
#160 = DIRECTION ( 'NONE',  ( 1.000000000000000000, 0.000000000000000000, 0.000000000000000000 ) ) ;
#161 = ORIENTED_EDGE ( 'NONE', *, *, #34, .T. ) ;
#162 = EDGE_LOOP ( 'NONE', ( #241, #87, #11, #169 ) ) ;
#163 = PRODUCT_DEFINITION ( 'UNKNOWN', '', #84, #21 ) ;
#164 = AXIS2_PLACEMENT_3D ( 'NONE', #106, #42, #160 ) ;
#165 = CIRCLE ( 'NONE', #231, 0.09999999999999982514 ) ;
#166 = DIRECTION ( 'NONE',  ( -0.000000000000000000, -0.000000000000000000, -1.000000000000000000 ) ) ;
#167 = AXIS2_PLACEMENT_3D ( 'NONE', #56, #48, #9 ) ;
#168 = EDGE_CURVE ( 'NONE', #263, #47, #205, .T. ) ;
#169 = ORIENTED_EDGE ( 'NONE', *, *, #262, .F. ) ;
#170 = ORIENTED_EDGE ( 'NONE', *, *, #67, .T. ) ;
#171 = ADVANCED_FACE ( 'NONE', ( #301 ), #122, .T. ) ;
#172 = DIRECTION ( 'NONE',  ( -0.000000000000000000, -0.000000000000000000, -1.000000000000000000 ) ) ;
#173 = EDGE_LOOP ( 'NONE', ( #190, #226 ) ) ;
#174 = AXIS2_PLACEMENT_3D ( 'NONE', #121, #275, #145 ) ;
#175 = CARTESIAN_POINT ( 'NONE',  ( 0.000000000000000000, 0.000000000000000000, 1.500000000000000000 ) ) ;
#176 = ORIENTED_EDGE ( 'NONE', *, *, #227, .F. ) ;
#177 = DIRECTION ( 'NONE',  ( -0.000000000000000000, 0.000000000000000000, 1.000000000000000000 ) ) ;
#178 = DIRECTION ( 'NONE',  ( 1.000000000000000000, 0.000000000000000000, 0.000000000000000000 ) ) ;
#179 = FACE_OUTER_BOUND ( 'NONE', #147, .T. ) ;
#180 = STYLED_ITEM ( 'NONE', ( #297 ), #305 ) ;
#181 = FACE_OUTER_BOUND ( 'NONE', #144, .T. ) ;
#182 = DIRECTION ( 'NONE',  ( -0.000000000000000000, 0.000000000000000000, 1.000000000000000000 ) ) ;
#183 = EDGE_CURVE ( 'NONE', #192, #94, #188, .T. ) ;
#184 = DIRECTION ( 'NONE',  ( -1.000000000000000000, 1.224646799147353454E-16, 0.000000000000000000 ) ) ;
#185 = DIRECTION ( 'NONE',  ( 0.000000000000000000, 0.000000000000000000, -1.000000000000000000 ) ) ;
#186 = CIRCLE ( 'NONE', #252, 0.1000000000000000472 ) ;
#187 = CIRCLE ( 'NONE', #306, 1.000000000000000000 ) ;
#188 = CIRCLE ( 'NONE', #290, 2.149999999999999911 ) ;
#189 = CYLINDRICAL_SURFACE ( 'NONE', #92, 1.000000000000000000 ) ;
#190 = ORIENTED_EDGE ( 'NONE', *, *, #146, .T. ) ;
#191 = CIRCLE ( 'NONE', #208, 1.000000000000000000 ) ;
#192 = VERTEX_POINT ( 'NONE', #245 ) ;
#193 = DIRECTION ( 'NONE',  ( -1.000000000000000000, 1.224646799147353207E-16, 0.000000000000000000 ) ) ;
#194 = ADVANCED_BREP_SHAPE_REPRESENTATION ( 'B568 \X2\041704300433043b04430448043a0430\X0\ \X2\043a04400435043f04350436043d043e0433043e\X0\ \X2\043e0442043204350440044104420438044f\X0\ \X2\043f043e0434\X0\ MGR7 (\X2\0441043504400430044f\X0\)', ( #305, #174 ), #212 ) ;
#195 = LINE ( 'NONE', #224, #118 ) ;
#196 = EDGE_LOOP ( 'NONE', ( #27, #296 ) ) ;
#197 = CARTESIAN_POINT ( 'NONE',  ( 0.000000000000000000, 0.000000000000000000, 1.399999999999999911 ) ) ;
#198 = EDGE_LOOP ( 'NONE', ( #266, #161, #170, #46 ) ) ;
#199 = AXIS2_PLACEMENT_3D ( 'NONE', #104, #203, #37 ) ;
#200 = DIRECTION ( 'NONE',  ( 1.000000000000000000, 0.000000000000000000, 0.000000000000000000 ) ) ;
#201 = CARTESIAN_POINT ( 'NONE',  ( 0.000000000000000000, 0.000000000000000000, 1.500000000000000000 ) ) ;
#202 = ORIENTED_EDGE ( 'NONE', *, *, #85, .T. ) ;
#203 = DIRECTION ( 'NONE',  ( 0.000000000000000000, -1.000000000000000000, 0.000000000000000000 ) ) ;
#204 = CARTESIAN_POINT ( 'NONE',  ( 0.000000000000000000, 0.000000000000000000, 1.399999999999999911 ) ) ;
#205 = CIRCLE ( 'NONE', #66, 2.149999999999999911 ) ;
#206 = DIRECTION ( 'NONE',  ( 0.000000000000000000, -0.000000000000000000, -1.000000000000000000 ) ) ;
#207 = EDGE_CURVE ( 'NONE', #98, #282, #82, .T. ) ;
#208 = AXIS2_PLACEMENT_3D ( 'NONE', #248, #73, #126 ) ;
#209 =( GEOMETRIC_REPRESENTATION_CONTEXT ( 3 ) GLOBAL_UNCERTAINTY_ASSIGNED_CONTEXT ( ( #135 ) ) GLOBAL_UNIT_ASSIGNED_CONTEXT ( ( #117, #12, #123 ) ) REPRESENTATION_CONTEXT ( 'NONE', 'WORKASPACE' ) );
#210 = VERTEX_POINT ( 'NONE', #54 ) ;
#211 = EDGE_CURVE ( 'NONE', #255, #291, #158, .T. ) ;
#212 =( GEOMETRIC_REPRESENTATION_CONTEXT ( 3 ) GLOBAL_UNCERTAINTY_ASSIGNED_CONTEXT ( ( #81 ) ) GLOBAL_UNIT_ASSIGNED_CONTEXT ( ( #14, #156, #238 ) ) REPRESENTATION_CONTEXT ( 'NONE', 'WORKASPACE' ) );
#213 = ORIENTED_EDGE ( 'NONE', *, *, #134, .F. ) ;
#214 = CLOSED_SHELL ( 'NONE', ( #246, #39, #229, #91, #139, #171, #65, #232, #274, #88, #270 ) ) ;
#215 = APPLICATION_PROTOCOL_DEFINITION ( 'draft international standard', 'automotive_design', 1998, #254 ) ;
#216 = CARTESIAN_POINT ( 'NONE',  ( 0.000000000000000000, 0.000000000000000000, 1.500000000000000000 ) ) ;
#217 = ORIENTED_EDGE ( 'NONE', *, *, #34, .F. ) ;
#218 = DIRECTION ( 'NONE',  ( -0.000000000000000000, -0.000000000000000000, -1.000000000000000000 ) ) ;
#219 = CARTESIAN_POINT ( 'NONE',  ( 1.000000000000000000, 1.224646799147353207E-16, 1.199999999999999956 ) ) ;
#220 = CARTESIAN_POINT ( 'NONE',  ( 0.000000000000000000, 0.000000000000000000, 0.000000000000000000 ) ) ;
#221 = CIRCLE ( 'NONE', #164, 1.000000000000000000 ) ;
#222 = ORIENTED_EDGE ( 'NONE', *, *, #307, .F. ) ;
#223 = CARTESIAN_POINT ( 'NONE',  ( -1.100000000000000089, 1.347111479062088503E-16, 1.500000000000000000 ) ) ;
#224 = CARTESIAN_POINT ( 'NONE',  ( -2.149999999999999911, 0.000000000000000000, 1.500000000000000000 ) ) ;
#225 = CARTESIAN_POINT ( 'NONE',  ( 0.000000000000000000, 0.000000000000000000, 1.500000000000000000 ) ) ;
#226 = ORIENTED_EDGE ( 'NONE', *, *, #227, .T. ) ;
#227 = EDGE_CURVE ( 'NONE', #247, #93, #287, .T. ) ;
#228 = DIRECTION ( 'NONE',  ( -0.000000000000000000, 0.000000000000000000, 1.000000000000000000 ) ) ;
#229 = ADVANCED_FACE ( 'NONE', ( #181 ), #99, .T. ) ;
#230 = PRESENTATION_LAYER_ASSIGNMENT (  '', '', ( #180 ) ) ;
#231 = AXIS2_PLACEMENT_3D ( 'NONE', #61, #304, #184 ) ;
#232 = ADVANCED_FACE ( 'NONE', ( #31 ), #19, .F. ) ;
#233 = CARTESIAN_POINT ( 'NONE',  ( 0.000000000000000000, 0.000000000000000000, 1.399999999999999911 ) ) ;
#234 = DIRECTION ( 'NONE',  ( -1.000000000000000000, 0.000000000000000000, 0.000000000000000000 ) ) ;
#235 = AXIS2_PLACEMENT_3D ( 'NONE', #17, #30, #13 ) ;
#236 = ORIENTED_EDGE ( 'NONE', *, *, #183, .T. ) ;
#237 = ORIENTED_EDGE ( 'NONE', *, *, #41, .T. ) ;
#238 =( NAMED_UNIT ( * ) SI_UNIT ( $, .STERADIAN. ) SOLID_ANGLE_UNIT ( ) );
#239 = FACE_OUTER_BOUND ( 'NONE', #198, .T. ) ;
#240 = VECTOR ( 'NONE', #20, 1000.000000000000000 ) ;
#241 = ORIENTED_EDGE ( 'NONE', *, *, #183, .F. ) ;
#242 = CARTESIAN_POINT ( 'NONE',  ( 0.000000000000000000, 0.000000000000000000, 1.500000000000000000 ) ) ;
#243 = ORIENTED_EDGE ( 'NONE', *, *, #119, .T. ) ;
#244 = CARTESIAN_POINT ( 'NONE',  ( -1.100000000000000089, 1.347111479062088503E-16, 1.399999999999999911 ) ) ;
#245 = CARTESIAN_POINT ( 'NONE',  ( -2.149999999999999911, 0.000000000000000000, 1.399999999999999911 ) ) ;
#246 = ADVANCED_FACE ( 'NONE', ( #179 ), #277, .T. ) ;
#247 = VERTEX_POINT ( 'NONE', #273 ) ;
#248 = CARTESIAN_POINT ( 'NONE',  ( 0.000000000000000000, 0.000000000000000000, 1.399999999999999911 ) ) ;
#249 = DIRECTION ( 'NONE',  ( 1.000000000000000000, 0.000000000000000000, 0.000000000000000000 ) ) ;
#250 = AXIS2_PLACEMENT_3D ( 'NONE', #159, #218, #35 ) ;
#251 = CARTESIAN_POINT ( 'NONE',  ( 1.000000000000000000, 1.224646799147353207E-16, 1.399999999999999911 ) ) ;
#252 = AXIS2_PLACEMENT_3D ( 'NONE', #281, #89, #185 ) ;
#253 = FACE_OUTER_BOUND ( 'NONE', #173, .T. ) ;
#254 = APPLICATION_CONTEXT ( 'automotive_design' ) ;
#255 = VERTEX_POINT ( 'NONE', #223 ) ;
#256 = ORIENTED_EDGE ( 'NONE', *, *, #4, .F. ) ;
#257 = LINE ( 'NONE', #141, #240 ) ;
#258 = ORIENTED_EDGE ( 'NONE', *, *, #41, .F. ) ;
#259 = PRODUCT_DEFINITION_SHAPE ( 'NONE', 'NONE',  #163 ) ;
#260 = VECTOR ( 'NONE', #172, 1000.000000000000000 ) ;
#261 = AXIS2_PLACEMENT_3D ( 'NONE', #242, #74, #36 ) ;
#262 = EDGE_CURVE ( 'NONE', #94, #93, #101, .T. ) ;
#263 = VERTEX_POINT ( 'NONE', #136 ) ;
#264 = EDGE_LOOP ( 'NONE', ( #222, #302, #202, #5 ) ) ;
#265 = SURFACE_STYLE_FILL_AREA ( #26 ) ;
#266 = ORIENTED_EDGE ( 'NONE', *, *, #207, .F. ) ;
#267 = CARTESIAN_POINT ( 'NONE',  ( 1.000000000000000000, 1.224646799147353207E-16, 1.500000000000000000 ) ) ;
#268 = DIRECTION ( 'NONE',  ( 1.224646799147353207E-16, 1.000000000000000000, 0.000000000000000000 ) ) ;
#269 = DIRECTION ( 'NONE',  ( -0.000000000000000000, -0.000000000000000000, -1.000000000000000000 ) ) ;
#270 = ADVANCED_FACE ( 'NONE', ( #22 ), #308, .T. ) ;
#271 = EDGE_LOOP ( 'NONE', ( #116, #294, #213, #284 ) ) ;
#272 = PLANE ( 'NONE',  #167 ) ;
#273 = CARTESIAN_POINT ( 'NONE',  ( -2.050000000000000266, 2.571758278209441464E-16, 1.500000000000000000 ) ) ;
#274 = ADVANCED_FACE ( 'NONE', ( #16 ), #272, .T. ) ;
#275 = DIRECTION ( 'NONE',  ( 0.000000000000000000, 0.000000000000000000, 1.000000000000000000 ) ) ;
#276 = CARTESIAN_POINT ( 'NONE',  ( 0.000000000000000000, 0.000000000000000000, 1.199999999999999956 ) ) ;
#277 = TOROIDAL_SURFACE ( 'NONE', #63, 1.100000000000000089, 0.1000000000000000056 ) ;
#278 = EDGE_CURVE ( 'NONE', #32, #98, #191, .T. ) ;
#279 = DIRECTION ( 'NONE',  ( -0.000000000000000000, 0.000000000000000000, 1.000000000000000000 ) ) ;
#280 = FACE_BOUND ( 'NONE', #120, .T. ) ;
#281 = CARTESIAN_POINT ( 'NONE',  ( 1.100000000000000089, 0.000000000000000000, 1.399999999999999911 ) ) ;
#282 = VERTEX_POINT ( 'NONE', #219 ) ;
#283 = COLOUR_RGB ( '',0.7921568627450980005, 0.8196078431372548767, 0.9333333333333333481 ) ;
#284 = ORIENTED_EDGE ( 'NONE', *, *, #67, .F. ) ;
#285 = VECTOR ( 'NONE', #110, 1000.000000000000000 ) ;
#286 = FACE_OUTER_BOUND ( 'NONE', #68, .T. ) ;
#287 = CIRCLE ( 'NONE', #235, 2.050000000000000266 ) ;
#288 = DIRECTION ( 'NONE',  ( -0.000000000000000000, 0.000000000000000000, 1.000000000000000000 ) ) ;
#289 = CARTESIAN_POINT ( 'NONE',  ( 0.000000000000000000, 0.000000000000000000, 1.500000000000000000 ) ) ;
#290 = AXIS2_PLACEMENT_3D ( 'NONE', #197, #10, #97 ) ;
#291 = VERTEX_POINT ( 'NONE', #53 ) ;
#292 = EDGE_CURVE ( 'NONE', #47, #263, #69, .T. ) ;
#293 = CARTESIAN_POINT ( 'NONE',  ( 0.000000000000000000, 0.000000000000000000, 1.199999999999999956 ) ) ;
#294 = ORIENTED_EDGE ( 'NONE', *, *, #207, .T. ) ;
#295 = APPLICATION_PROTOCOL_DEFINITION ( 'draft international standard', 'automotive_design', 1998, #44 ) ;
#296 = ORIENTED_EDGE ( 'NONE', *, *, #168, .F. ) ;
#297 = PRESENTATION_STYLE_ASSIGNMENT (( #299 ) ) ;
#298 = DIRECTION ( 'NONE',  ( 1.000000000000000000, 0.000000000000000000, 0.000000000000000000 ) ) ;
#299 = SURFACE_STYLE_USAGE ( .BOTH. , #80 ) ;
#300 = DIRECTION ( 'NONE',  ( 1.000000000000000000, 0.000000000000000000, 0.000000000000000000 ) ) ;
#301 = FACE_OUTER_BOUND ( 'NONE', #152, .T. ) ;
#302 = ORIENTED_EDGE ( 'NONE', *, *, #155, .F. ) ;
#303 = AXIS2_PLACEMENT_3D ( 'NONE', #225, #228, #23 ) ;
#304 = DIRECTION ( 'NONE',  ( 1.224646799147353207E-16, 1.000000000000000000, 0.000000000000000000 ) ) ;
#305 = MANIFOLD_SOLID_BREP ( '\X2\0421043a044004430433043b0435043d04380435\X0\1', #214 ) ;
#306 = AXIS2_PLACEMENT_3D ( 'NONE', #276, #279, #60 ) ;
#307 = EDGE_CURVE ( 'NONE', #255, #32, #43, .T. ) ;
#308 = TOROIDAL_SURFACE ( 'NONE', #25, 1.100000000000000089, 0.1000000000000000056 ) ;
#309 = CARTESIAN_POINT ( 'NONE',  ( -2.149999999999999911, 0.000000000000000000, 0.000000000000000000 ) ) ;
ENDSEC;
END-ISO-10303-21;
