ISO-10303-21;
HEADER;
/* Generated by software containing ST-Developer
 * from STEP Tools, Inc. (www.steptools.com) 
 */

FILE_DESCRIPTION(
/* description */ ('',
'CAx-IF Rec.Pracs.---Representation and Presentation of Product Manufa
cturing Information (PMI)---4.0---2014-10-13'),
/* implementation_level */ '2;1');

FILE_NAME(
/* name */ 'C:\\Users\\maste\\Documents\\Soberizavod\\A180\\A180.stp',
/* time_stamp */ '2019-03-22T14:43:12+03:00',
/* author */ ('maste'),
/* organization */ (''),
/* preprocessor_version */ 'ST-DEVELOPER v17',
/* originating_system */ 'Autodesk Inventor 2018',
/* authorisation */ '');

FILE_SCHEMA (('AP242_MANAGED_MODEL_BASED_3D_ENGINEERING_MIM_LF { 1 0 10303 442 1 1 4 }'));
ENDSEC;

DATA;
#10=MECHANICAL_DESIGN_AND_DRAUGHTING_RELATIONSHIP('',
'\X2\04180437043E043C0435044204400438044704350441043A04380439\X0\',#24,
#25);
#11=MECHANICAL_DESIGN_AND_DRAUGHTING_RELATIONSHIP('','\X2\0421043F04350440043504340438\X0\',
#26,#25);
#12=MECHANICAL_DESIGN_AND_DRAUGHTING_RELATIONSHIP('','\X2\042104320435044004450443\X0\',
#27,#25);
#13=MECHANICAL_DESIGN_AND_DRAUGHTING_RELATIONSHIP('','\X2\0421043F0440043004320430\X0\',
#28,#25);
#14=MAPPED_ITEM('',#19,#299);
#15=MAPPED_ITEM('',#20,#300);
#16=MAPPED_ITEM('',#21,#301);
#17=MAPPED_ITEM('',#22,#302);
#18=MAPPED_ITEM('',#23,#303);
#19=REPRESENTATION_MAP(#299,#43);
#20=REPRESENTATION_MAP(#300,#498);
#21=REPRESENTATION_MAP(#301,#43);
#22=REPRESENTATION_MAP(#302,#43);
#23=REPRESENTATION_MAP(#303,#43);
#24=DRAUGHTING_MODEL('\X2\04180437043E043C0435044204400438044704350441043A04380439\X0\',
(#14,#30),#490);
#25=DRAUGHTING_MODEL('',(#15,#300),#490);
#26=DRAUGHTING_MODEL('\X2\0421043F04350440043504340438\X0\',(#16,#31),#490);
#27=DRAUGHTING_MODEL('\X2\042104320435044004450443\X0\',(#17,#32),#490);
#28=DRAUGHTING_MODEL('\X2\0421043F0440043004320430\X0\',(#18,#33),#490);
#29=MECHANICAL_DESIGN_GEOMETRIC_PRESENTATION_REPRESENTATION('',(#44),#491);
#30=CAMERA_MODEL_D3_MULTI_CLIPPING('\X2\04180437043E043C0435044204400438044704350441043A04380439\X0\',
#283,#34,(#59,#60));
#31=CAMERA_MODEL_D3_MULTI_CLIPPING('\X2\0421043F04350440043504340438\X0\',
#287,#35,(#61,#62));
#32=CAMERA_MODEL_D3_MULTI_CLIPPING('\X2\042104320435044004450443\X0\',#291,
#36,(#63,#64));
#33=CAMERA_MODEL_D3_MULTI_CLIPPING('\X2\0421043F0440043004320430\X0\',#295,
#37,(#65,#66));
#34=VIEW_VOLUME(.PARALLEL.,#465,16.9875424688562,0.,.F.,0.,.F.,.F.,#38);
#35=VIEW_VOLUME(.PARALLEL.,#470,117.693146607172,0.,.F.,0.,.F.,.F.,#39);
#36=VIEW_VOLUME(.PARALLEL.,#475,117.693146607172,0.,.F.,0.,.F.,.F.,#40);
#37=VIEW_VOLUME(.PARALLEL.,#480,117.693146607172,0.,.F.,0.,.F.,.F.,#41);
#38=PLANAR_BOX('view window',0.,0.,#284);
#39=PLANAR_BOX('view window',0.,0.,#288);
#40=PLANAR_BOX('view window',0.,0.,#292);
#41=PLANAR_BOX('view window',0.,0.,#296);
#42=SHAPE_REPRESENTATION_RELATIONSHIP('SRR','None',#498,#43);
#43=ADVANCED_BREP_SHAPE_REPRESENTATION('',(#46),#490);
#44=STYLED_ITEM('',(#507),#46);
#45=STYLED_ITEM('',(#508),#15);
#46=MANIFOLD_SOLID_BREP('\X2\04220432043504400434043E0435\X0\ \X2\04420435043B043E\X0\1',
#233);
#47=CYLINDRICAL_SURFACE('',#261,5.);
#48=CYLINDRICAL_SURFACE('',#267,4.2);
#49=CYLINDRICAL_SURFACE('',#273,5.);
#50=CYLINDRICAL_SURFACE('',#282,7.5);
#51=FACE_BOUND('',#79,.T.);
#52=FACE_BOUND('',#82,.T.);
#53=FACE_BOUND('',#85,.T.);
#54=FACE_BOUND('',#88,.T.);
#55=PLANE('',#258);
#56=PLANE('',#264);
#57=PLANE('',#270);
#58=PLANE('',#276);
#59=PLANE('Near clipping plane',#285);
#60=PLANE('Far clipping plane',#286);
#61=PLANE('Near clipping plane',#289);
#62=PLANE('Far clipping plane',#290);
#63=PLANE('Near clipping plane',#293);
#64=PLANE('Far clipping plane',#294);
#65=PLANE('Near clipping plane',#297);
#66=PLANE('Far clipping plane',#298);
#67=FACE_OUTER_BOUND('',#77,.T.);
#68=FACE_OUTER_BOUND('',#78,.T.);
#69=FACE_OUTER_BOUND('',#80,.T.);
#70=FACE_OUTER_BOUND('',#81,.T.);
#71=FACE_OUTER_BOUND('',#83,.T.);
#72=FACE_OUTER_BOUND('',#84,.T.);
#73=FACE_OUTER_BOUND('',#86,.T.);
#74=FACE_OUTER_BOUND('',#87,.T.);
#75=FACE_OUTER_BOUND('',#89,.T.);
#76=FACE_OUTER_BOUND('',#90,.T.);
#77=EDGE_LOOP('',(#169,#170,#171,#172,#173,#174));
#78=EDGE_LOOP('',(#175,#176));
#79=EDGE_LOOP('',(#177,#178));
#80=EDGE_LOOP('',(#179,#180,#181,#182,#183,#184));
#81=EDGE_LOOP('',(#185,#186));
#82=EDGE_LOOP('',(#187,#188));
#83=EDGE_LOOP('',(#189,#190,#191,#192,#193,#194));
#84=EDGE_LOOP('',(#195,#196));
#85=EDGE_LOOP('',(#197,#198));
#86=EDGE_LOOP('',(#199,#200,#201,#202,#203,#204));
#87=EDGE_LOOP('',(#205,#206));
#88=EDGE_LOOP('',(#207,#208));
#89=EDGE_LOOP('',(#209,#210,#211,#212,#213,#214));
#90=EDGE_LOOP('',(#215,#216,#217,#218,#219,#220));
#91=LINE('',#413,#97);
#92=LINE('',#424,#98);
#93=LINE('',#435,#99);
#94=LINE('',#446,#100);
#95=LINE('',#460,#101);
#96=LINE('',#462,#102);
#97=VECTOR('',#312,6.75);
#98=VECTOR('',#325,5.);
#99=VECTOR('',#338,4.2);
#100=VECTOR('',#351,5.);
#101=VECTOR('',#368,6.75);
#102=VECTOR('',#371,7.5);
#103=CIRCLE('',#254,6.);
#104=CIRCLE('',#255,6.);
#105=CIRCLE('',#256,7.5);
#106=CIRCLE('',#257,7.5);
#107=CIRCLE('',#259,5.);
#108=CIRCLE('',#260,5.);
#109=CIRCLE('',#262,5.);
#110=CIRCLE('',#263,5.);
#111=CIRCLE('',#265,4.2);
#112=CIRCLE('',#266,4.2);
#113=CIRCLE('',#268,4.2);
#114=CIRCLE('',#269,4.2);
#115=CIRCLE('',#271,5.);
#116=CIRCLE('',#272,5.);
#117=CIRCLE('',#274,5.);
#118=CIRCLE('',#275,5.);
#119=CIRCLE('',#277,6.);
#120=CIRCLE('',#278,6.);
#121=CIRCLE('',#280,7.5);
#122=CIRCLE('',#281,7.5);
#123=VERTEX_POINT('',#408);
#124=VERTEX_POINT('',#409);
#125=VERTEX_POINT('',#412);
#126=VERTEX_POINT('',#414);
#127=VERTEX_POINT('',#418);
#128=VERTEX_POINT('',#419);
#129=VERTEX_POINT('',#423);
#130=VERTEX_POINT('',#425);
#131=VERTEX_POINT('',#429);
#132=VERTEX_POINT('',#430);
#133=VERTEX_POINT('',#434);
#134=VERTEX_POINT('',#436);
#135=VERTEX_POINT('',#440);
#136=VERTEX_POINT('',#441);
#137=VERTEX_POINT('',#445);
#138=VERTEX_POINT('',#447);
#139=VERTEX_POINT('',#451);
#140=VERTEX_POINT('',#452);
#141=VERTEX_POINT('',#456);
#142=VERTEX_POINT('',#457);
#143=EDGE_CURVE('',#123,#124,#103,.T.);
#144=EDGE_CURVE('',#124,#123,#104,.T.);
#145=EDGE_CURVE('',#124,#125,#91,.T.);
#146=EDGE_CURVE('',#125,#126,#105,.T.);
#147=EDGE_CURVE('',#126,#125,#106,.T.);
#148=EDGE_CURVE('',#127,#128,#107,.T.);
#149=EDGE_CURVE('',#128,#127,#108,.T.);
#150=EDGE_CURVE('',#128,#129,#92,.T.);
#151=EDGE_CURVE('',#130,#129,#109,.T.);
#152=EDGE_CURVE('',#129,#130,#110,.T.);
#153=EDGE_CURVE('',#131,#132,#111,.T.);
#154=EDGE_CURVE('',#132,#131,#112,.T.);
#155=EDGE_CURVE('',#132,#133,#93,.T.);
#156=EDGE_CURVE('',#134,#133,#113,.T.);
#157=EDGE_CURVE('',#133,#134,#114,.T.);
#158=EDGE_CURVE('',#135,#136,#115,.T.);
#159=EDGE_CURVE('',#136,#135,#116,.T.);
#160=EDGE_CURVE('',#136,#137,#94,.T.);
#161=EDGE_CURVE('',#138,#137,#117,.T.);
#162=EDGE_CURVE('',#137,#138,#118,.T.);
#163=EDGE_CURVE('',#139,#140,#119,.T.);
#164=EDGE_CURVE('',#140,#139,#120,.T.);
#165=EDGE_CURVE('',#141,#142,#121,.T.);
#166=EDGE_CURVE('',#142,#141,#122,.T.);
#167=EDGE_CURVE('',#142,#140,#95,.T.);
#168=EDGE_CURVE('',#125,#142,#96,.T.);
#169=ORIENTED_EDGE('',*,*,#143,.F.);
#170=ORIENTED_EDGE('',*,*,#144,.F.);
#171=ORIENTED_EDGE('',*,*,#145,.T.);
#172=ORIENTED_EDGE('',*,*,#146,.T.);
#173=ORIENTED_EDGE('',*,*,#147,.T.);
#174=ORIENTED_EDGE('',*,*,#145,.F.);
#175=ORIENTED_EDGE('',*,*,#143,.T.);
#176=ORIENTED_EDGE('',*,*,#144,.T.);
#177=ORIENTED_EDGE('',*,*,#148,.F.);
#178=ORIENTED_EDGE('',*,*,#149,.F.);
#179=ORIENTED_EDGE('',*,*,#148,.T.);
#180=ORIENTED_EDGE('',*,*,#150,.T.);
#181=ORIENTED_EDGE('',*,*,#151,.F.);
#182=ORIENTED_EDGE('',*,*,#152,.F.);
#183=ORIENTED_EDGE('',*,*,#150,.F.);
#184=ORIENTED_EDGE('',*,*,#149,.T.);
#185=ORIENTED_EDGE('',*,*,#151,.T.);
#186=ORIENTED_EDGE('',*,*,#152,.T.);
#187=ORIENTED_EDGE('',*,*,#153,.F.);
#188=ORIENTED_EDGE('',*,*,#154,.F.);
#189=ORIENTED_EDGE('',*,*,#153,.T.);
#190=ORIENTED_EDGE('',*,*,#155,.T.);
#191=ORIENTED_EDGE('',*,*,#156,.F.);
#192=ORIENTED_EDGE('',*,*,#157,.F.);
#193=ORIENTED_EDGE('',*,*,#155,.F.);
#194=ORIENTED_EDGE('',*,*,#154,.T.);
#195=ORIENTED_EDGE('',*,*,#158,.F.);
#196=ORIENTED_EDGE('',*,*,#159,.F.);
#197=ORIENTED_EDGE('',*,*,#156,.T.);
#198=ORIENTED_EDGE('',*,*,#157,.T.);
#199=ORIENTED_EDGE('',*,*,#158,.T.);
#200=ORIENTED_EDGE('',*,*,#160,.T.);
#201=ORIENTED_EDGE('',*,*,#161,.F.);
#202=ORIENTED_EDGE('',*,*,#162,.F.);
#203=ORIENTED_EDGE('',*,*,#160,.F.);
#204=ORIENTED_EDGE('',*,*,#159,.T.);
#205=ORIENTED_EDGE('',*,*,#163,.F.);
#206=ORIENTED_EDGE('',*,*,#164,.F.);
#207=ORIENTED_EDGE('',*,*,#161,.T.);
#208=ORIENTED_EDGE('',*,*,#162,.T.);
#209=ORIENTED_EDGE('',*,*,#165,.F.);
#210=ORIENTED_EDGE('',*,*,#166,.F.);
#211=ORIENTED_EDGE('',*,*,#167,.T.);
#212=ORIENTED_EDGE('',*,*,#164,.T.);
#213=ORIENTED_EDGE('',*,*,#163,.T.);
#214=ORIENTED_EDGE('',*,*,#167,.F.);
#215=ORIENTED_EDGE('',*,*,#147,.F.);
#216=ORIENTED_EDGE('',*,*,#146,.F.);
#217=ORIENTED_EDGE('',*,*,#168,.T.);
#218=ORIENTED_EDGE('',*,*,#166,.T.);
#219=ORIENTED_EDGE('',*,*,#165,.T.);
#220=ORIENTED_EDGE('',*,*,#168,.F.);
#221=CONICAL_SURFACE('',#253,6.75,0.737815060120464);
#222=CONICAL_SURFACE('',#279,6.75,0.737815060120465);
#223=ADVANCED_FACE('',(#67),#221,.T.);
#224=ADVANCED_FACE('',(#68,#51),#55,.T.);
#225=ADVANCED_FACE('',(#69),#47,.F.);
#226=ADVANCED_FACE('',(#70,#52),#56,.T.);
#227=ADVANCED_FACE('',(#71),#48,.F.);
#228=ADVANCED_FACE('',(#72,#53),#57,.T.);
#229=ADVANCED_FACE('',(#73),#49,.F.);
#230=ADVANCED_FACE('',(#74,#54),#58,.T.);
#231=ADVANCED_FACE('',(#75),#222,.T.);
#232=ADVANCED_FACE('',(#76),#50,.T.);
#233=CLOSED_SHELL('',(#223,#224,#225,#226,#227,#228,#229,#230,#231,#232));
#234=DERIVED_UNIT_ELEMENT(#236,1.);
#235=DERIVED_UNIT_ELEMENT(#493,3.);
#236=(
MASS_UNIT()
NAMED_UNIT(*)
SI_UNIT($,.GRAM.)
);
#237=DERIVED_UNIT((#234,#235));
#238=MEASURE_REPRESENTATION_ITEM('density measure',
POSITIVE_RATIO_MEASURE(1.),#237);
#239=PROPERTY_DEFINITION_REPRESENTATION(#244,#241);
#240=PROPERTY_DEFINITION_REPRESENTATION(#245,#242);
#241=REPRESENTATION('material name',(#243),#490);
#242=REPRESENTATION('density',(#238),#490);
#243=DESCRIPTIVE_REPRESENTATION_ITEM('\X2\04220438043F043E0432044B0435\X0\',
'\X2\04220438043F043E0432044B0435\X0\');
#244=PROPERTY_DEFINITION('material property','material name',#500);
#245=PROPERTY_DEFINITION('material property','density of part',#500);
#246=DATE_TIME_ROLE('creation_date');
#247=APPLIED_DATE_AND_TIME_ASSIGNMENT(#248,#246,(#500));
#248=DATE_AND_TIME(#249,#250);
#249=CALENDAR_DATE(2019,22,3);
#250=LOCAL_TIME(8,43,43.,#251);
#251=COORDINATED_UNIVERSAL_TIME_OFFSET(0,0,.BEHIND.);
#252=AXIS2_PLACEMENT_3D('placement',#406,#304,#305);
#253=AXIS2_PLACEMENT_3D('',#407,#306,#307);
#254=AXIS2_PLACEMENT_3D('',#410,#308,#309);
#255=AXIS2_PLACEMENT_3D('',#411,#310,#311);
#256=AXIS2_PLACEMENT_3D('',#415,#313,#314);
#257=AXIS2_PLACEMENT_3D('',#416,#315,#316);
#258=AXIS2_PLACEMENT_3D('',#417,#317,#318);
#259=AXIS2_PLACEMENT_3D('',#420,#319,#320);
#260=AXIS2_PLACEMENT_3D('',#421,#321,#322);
#261=AXIS2_PLACEMENT_3D('',#422,#323,#324);
#262=AXIS2_PLACEMENT_3D('',#426,#326,#327);
#263=AXIS2_PLACEMENT_3D('',#427,#328,#329);
#264=AXIS2_PLACEMENT_3D('',#428,#330,#331);
#265=AXIS2_PLACEMENT_3D('',#431,#332,#333);
#266=AXIS2_PLACEMENT_3D('',#432,#334,#335);
#267=AXIS2_PLACEMENT_3D('',#433,#336,#337);
#268=AXIS2_PLACEMENT_3D('',#437,#339,#340);
#269=AXIS2_PLACEMENT_3D('',#438,#341,#342);
#270=AXIS2_PLACEMENT_3D('',#439,#343,#344);
#271=AXIS2_PLACEMENT_3D('',#442,#345,#346);
#272=AXIS2_PLACEMENT_3D('',#443,#347,#348);
#273=AXIS2_PLACEMENT_3D('',#444,#349,#350);
#274=AXIS2_PLACEMENT_3D('',#448,#352,#353);
#275=AXIS2_PLACEMENT_3D('',#449,#354,#355);
#276=AXIS2_PLACEMENT_3D('',#450,#356,#357);
#277=AXIS2_PLACEMENT_3D('',#453,#358,#359);
#278=AXIS2_PLACEMENT_3D('',#454,#360,#361);
#279=AXIS2_PLACEMENT_3D('',#455,#362,#363);
#280=AXIS2_PLACEMENT_3D('',#458,#364,#365);
#281=AXIS2_PLACEMENT_3D('',#459,#366,#367);
#282=AXIS2_PLACEMENT_3D('',#461,#369,#370);
#283=AXIS2_PLACEMENT_3D('view reference',#463,#372,#373);
#284=AXIS2_PLACEMENT_3D('view window',#464,#374,#375);
#285=AXIS2_PLACEMENT_3D('Near clipping plane',#466,#376,$);
#286=AXIS2_PLACEMENT_3D('Far clipping plane',#467,#377,$);
#287=AXIS2_PLACEMENT_3D('view reference',#468,#378,#379);
#288=AXIS2_PLACEMENT_3D('view window',#469,#380,#381);
#289=AXIS2_PLACEMENT_3D('Near clipping plane',#471,#382,$);
#290=AXIS2_PLACEMENT_3D('Far clipping plane',#472,#383,$);
#291=AXIS2_PLACEMENT_3D('view reference',#473,#384,#385);
#292=AXIS2_PLACEMENT_3D('view window',#474,#386,#387);
#293=AXIS2_PLACEMENT_3D('Near clipping plane',#476,#388,$);
#294=AXIS2_PLACEMENT_3D('Far clipping plane',#477,#389,$);
#295=AXIS2_PLACEMENT_3D('view reference',#478,#390,#391);
#296=AXIS2_PLACEMENT_3D('view window',#479,#392,#393);
#297=AXIS2_PLACEMENT_3D('Near clipping plane',#481,#394,$);
#298=AXIS2_PLACEMENT_3D('Far clipping plane',#482,#395,$);
#299=AXIS2_PLACEMENT_3D('',#483,#396,#397);
#300=AXIS2_PLACEMENT_3D('',#484,#398,#399);
#301=AXIS2_PLACEMENT_3D('',#485,#400,#401);
#302=AXIS2_PLACEMENT_3D('',#486,#402,#403);
#303=AXIS2_PLACEMENT_3D('',#487,#404,#405);
#304=DIRECTION('axis',(0.,0.,1.));
#305=DIRECTION('refdir',(1.,0.,0.));
#306=DIRECTION('center_axis',(0.,1.,0.));
#307=DIRECTION('ref_axis',(1.,0.,0.));
#308=DIRECTION('center_axis',(0.,-1.,0.));
#309=DIRECTION('ref_axis',(1.,0.,0.));
#310=DIRECTION('center_axis',(0.,-1.,0.));
#311=DIRECTION('ref_axis',(1.,0.,0.));
#312=DIRECTION('',(-0.672672793996312,0.739940073395944,-8.23786584041091E-17));
#313=DIRECTION('center_axis',(0.,-1.,0.));
#314=DIRECTION('ref_axis',(1.,0.,0.));
#315=DIRECTION('center_axis',(0.,-1.,0.));
#316=DIRECTION('ref_axis',(1.,0.,0.));
#317=DIRECTION('center_axis',(0.,-1.,0.));
#318=DIRECTION('ref_axis',(0.,0.,-1.));
#319=DIRECTION('center_axis',(0.,-1.,0.));
#320=DIRECTION('ref_axis',(1.,0.,0.));
#321=DIRECTION('center_axis',(0.,-1.,0.));
#322=DIRECTION('ref_axis',(1.,0.,0.));
#323=DIRECTION('center_axis',(0.,-1.,0.));
#324=DIRECTION('ref_axis',(1.,0.,0.));
#325=DIRECTION('',(0.,1.,0.));
#326=DIRECTION('center_axis',(0.,-1.,0.));
#327=DIRECTION('ref_axis',(1.,0.,0.));
#328=DIRECTION('center_axis',(0.,-1.,0.));
#329=DIRECTION('ref_axis',(1.,0.,0.));
#330=DIRECTION('center_axis',(0.,-1.,0.));
#331=DIRECTION('ref_axis',(0.,0.,-1.));
#332=DIRECTION('center_axis',(0.,-1.,0.));
#333=DIRECTION('ref_axis',(1.,0.,0.));
#334=DIRECTION('center_axis',(0.,-1.,0.));
#335=DIRECTION('ref_axis',(1.,0.,0.));
#336=DIRECTION('center_axis',(0.,-1.,0.));
#337=DIRECTION('ref_axis',(1.,0.,0.));
#338=DIRECTION('',(0.,1.,0.));
#339=DIRECTION('center_axis',(0.,-1.,0.));
#340=DIRECTION('ref_axis',(1.,0.,0.));
#341=DIRECTION('center_axis',(0.,-1.,0.));
#342=DIRECTION('ref_axis',(1.,0.,0.));
#343=DIRECTION('center_axis',(0.,1.,0.));
#344=DIRECTION('ref_axis',(0.,0.,1.));
#345=DIRECTION('center_axis',(0.,-1.,0.));
#346=DIRECTION('ref_axis',(1.,0.,0.));
#347=DIRECTION('center_axis',(0.,-1.,0.));
#348=DIRECTION('ref_axis',(1.,0.,0.));
#349=DIRECTION('center_axis',(0.,-1.,0.));
#350=DIRECTION('ref_axis',(1.,0.,0.));
#351=DIRECTION('',(0.,1.,0.));
#352=DIRECTION('center_axis',(0.,-1.,0.));
#353=DIRECTION('ref_axis',(1.,0.,0.));
#354=DIRECTION('center_axis',(0.,-1.,0.));
#355=DIRECTION('ref_axis',(1.,0.,0.));
#356=DIRECTION('center_axis',(0.,1.,0.));
#357=DIRECTION('ref_axis',(0.,0.,1.));
#358=DIRECTION('center_axis',(0.,-1.,0.));
#359=DIRECTION('ref_axis',(1.,0.,0.));
#360=DIRECTION('center_axis',(0.,-1.,0.));
#361=DIRECTION('ref_axis',(1.,0.,0.));
#362=DIRECTION('center_axis',(0.,-1.,0.));
#363=DIRECTION('ref_axis',(1.,0.,0.));
#364=DIRECTION('center_axis',(0.,-1.,0.));
#365=DIRECTION('ref_axis',(1.,0.,0.));
#366=DIRECTION('center_axis',(0.,-1.,0.));
#367=DIRECTION('ref_axis',(1.,0.,0.));
#368=DIRECTION('',(0.672672793996312,0.739940073395944,8.23786584041091E-17));
#369=DIRECTION('center_axis',(0.,-1.,0.));
#370=DIRECTION('ref_axis',(1.,0.,0.));
#371=DIRECTION('',(0.,1.,0.));
#372=DIRECTION('center_axis',(0.577350269189626,-0.577350269189626,0.577350269189626));
#373=DIRECTION('ref_axis',(0.707106781186548,0.707106781186548,0.));
#374=DIRECTION('center_axis',(0.577350269189626,-0.577350269189626,0.577350269189626));
#375=DIRECTION('ref_axis',(0.707106781186548,0.707106781186548,0.));
#376=DIRECTION('center_axis',(-0.577350269189626,0.577350269189626,-0.577350269189626));
#377=DIRECTION('center_axis',(-0.577350269189626,0.577350269189626,-0.577350269189626));
#378=DIRECTION('center_axis',(2.22044604925031E-16,0.,1.));
#379=DIRECTION('ref_axis',(1.,0.,-2.22044604925031E-16));
#380=DIRECTION('center_axis',(2.22044604925031E-16,0.,1.));
#381=DIRECTION('ref_axis',(1.,0.,-2.22044604925031E-16));
#382=DIRECTION('center_axis',(-2.22044604925031E-16,0.,-1.));
#383=DIRECTION('center_axis',(-2.22044604925031E-16,0.,-1.));
#384=DIRECTION('center_axis',(0.,1.,0.));
#385=DIRECTION('ref_axis',(1.,0.,0.));
#386=DIRECTION('center_axis',(0.,1.,0.));
#387=DIRECTION('ref_axis',(1.,0.,0.));
#388=DIRECTION('center_axis',(0.,-1.,0.));
#389=DIRECTION('center_axis',(0.,-1.,0.));
#390=DIRECTION('center_axis',(1.,0.,0.));
#391=DIRECTION('ref_axis',(0.,0.,-1.));
#392=DIRECTION('center_axis',(1.,0.,0.));
#393=DIRECTION('ref_axis',(0.,0.,-1.));
#394=DIRECTION('center_axis',(-1.,0.,0.));
#395=DIRECTION('center_axis',(-1.,0.,0.));
#396=DIRECTION('center_axis',(0.,0.,1.));
#397=DIRECTION('ref_axis',(1.,0.,0.));
#398=DIRECTION('center_axis',(0.,0.,1.));
#399=DIRECTION('ref_axis',(1.,0.,0.));
#400=DIRECTION('center_axis',(0.,0.,1.));
#401=DIRECTION('ref_axis',(1.,0.,0.));
#402=DIRECTION('center_axis',(0.,0.,1.));
#403=DIRECTION('ref_axis',(1.,0.,0.));
#404=DIRECTION('center_axis',(0.,0.,1.));
#405=DIRECTION('ref_axis',(1.,0.,0.));
#406=CARTESIAN_POINT('',(0.,0.,0.));
#407=CARTESIAN_POINT('Origin',(0.,-3.575,0.));
#408=CARTESIAN_POINT('',(6.,-4.4,0.));
#409=CARTESIAN_POINT('',(-6.,-4.4,-7.34788079488412E-16));
#410=CARTESIAN_POINT('Origin',(0.,-4.4,0.));
#411=CARTESIAN_POINT('Origin',(0.,-4.4,0.));
#412=CARTESIAN_POINT('',(-7.5,-2.75,-9.18485099360515E-16));
#413=CARTESIAN_POINT('',(-6.75,-3.575,-8.26636589424463E-16));
#414=CARTESIAN_POINT('',(7.5,-2.75,0.));
#415=CARTESIAN_POINT('Origin',(0.,-2.75,0.));
#416=CARTESIAN_POINT('Origin',(0.,-2.75,0.));
#417=CARTESIAN_POINT('Origin',(5.,-4.4,0.));
#418=CARTESIAN_POINT('',(5.,-4.4,0.));
#419=CARTESIAN_POINT('',(-5.,-4.4,-6.12323399573677E-16));
#420=CARTESIAN_POINT('Origin',(0.,-4.4,0.));
#421=CARTESIAN_POINT('Origin',(0.,-4.4,0.));
#422=CARTESIAN_POINT('Origin',(0.,-2.4,0.));
#423=CARTESIAN_POINT('',(-5.,-0.400000000000001,-6.12323399573677E-16));
#424=CARTESIAN_POINT('',(-5.,-2.4,-6.12323399573677E-16));
#425=CARTESIAN_POINT('',(5.,-0.400000000000001,0.));
#426=CARTESIAN_POINT('Origin',(0.,-0.400000000000001,0.));
#427=CARTESIAN_POINT('Origin',(0.,-0.400000000000001,0.));
#428=CARTESIAN_POINT('Origin',(4.2,-0.400000000000001,0.));
#429=CARTESIAN_POINT('',(4.2,-0.400000000000001,0.));
#430=CARTESIAN_POINT('',(-4.2,-0.400000000000001,-5.14351655641888E-16));
#431=CARTESIAN_POINT('Origin',(0.,-0.400000000000001,0.));
#432=CARTESIAN_POINT('Origin',(0.,-0.400000000000001,0.));
#433=CARTESIAN_POINT('Origin',(0.,0.,0.));
#434=CARTESIAN_POINT('',(-4.2,0.400000000000001,-5.14351655641888E-16));
#435=CARTESIAN_POINT('',(-4.2,0.,-5.14351655641888E-16));
#436=CARTESIAN_POINT('',(4.2,0.400000000000001,0.));
#437=CARTESIAN_POINT('Origin',(0.,0.400000000000001,0.));
#438=CARTESIAN_POINT('Origin',(0.,0.400000000000001,0.));
#439=CARTESIAN_POINT('Origin',(5.,0.400000000000001,0.));
#440=CARTESIAN_POINT('',(5.,0.400000000000001,0.));
#441=CARTESIAN_POINT('',(-5.,0.400000000000001,-6.12323399573677E-16));
#442=CARTESIAN_POINT('Origin',(0.,0.400000000000001,0.));
#443=CARTESIAN_POINT('Origin',(0.,0.400000000000001,0.));
#444=CARTESIAN_POINT('Origin',(0.,2.4,0.));
#445=CARTESIAN_POINT('',(-5.,4.4,-6.12323399573677E-16));
#446=CARTESIAN_POINT('',(-5.,2.4,-6.12323399573677E-16));
#447=CARTESIAN_POINT('',(5.,4.4,0.));
#448=CARTESIAN_POINT('Origin',(0.,4.4,0.));
#449=CARTESIAN_POINT('Origin',(0.,4.4,0.));
#450=CARTESIAN_POINT('Origin',(6.,4.4,0.));
#451=CARTESIAN_POINT('',(6.,4.4,0.));
#452=CARTESIAN_POINT('',(-6.,4.4,-7.34788079488412E-16));
#453=CARTESIAN_POINT('Origin',(0.,4.4,0.));
#454=CARTESIAN_POINT('Origin',(0.,4.4,0.));
#455=CARTESIAN_POINT('Origin',(0.,3.575,0.));
#456=CARTESIAN_POINT('',(7.5,2.75,0.));
#457=CARTESIAN_POINT('',(-7.5,2.75,-9.18485099360515E-16));
#458=CARTESIAN_POINT('Origin',(0.,2.75,0.));
#459=CARTESIAN_POINT('Origin',(0.,2.75,0.));
#460=CARTESIAN_POINT('',(-6.75,3.575,-8.26636589424463E-16));
#461=CARTESIAN_POINT('Origin',(0.,0.,0.));
#462=CARTESIAN_POINT('',(-7.5,0.,-9.18485099360515E-16));
#463=CARTESIAN_POINT('Origin',(9.23041194807469,-9.23041194807469,9.23041194807469));
#464=CARTESIAN_POINT('Origin',(9.23041194807469,-9.23041194807469,9.23041194807469));
#465=CARTESIAN_POINT('',(9.80776221726431,-9.80776221726431,9.80776221726431));
#466=CARTESIAN_POINT('Origin',(9.80776221726431,-9.80776221726431,9.80776221726431));
#467=CARTESIAN_POINT('Origin',(-9.80776221726431,9.80776221726431,-9.80776221726431));
#468=CARTESIAN_POINT('Origin',(2.59110836358482E-14,0.,116.693146607172));
#469=CARTESIAN_POINT('Origin',(2.59110836358482E-14,0.,116.693146607172));
#470=CARTESIAN_POINT('',(2.61331282407732E-14,0.,117.693146607172));
#471=CARTESIAN_POINT('Origin',(2.61331282407732E-14,0.,117.693146607172));
#472=CARTESIAN_POINT('Origin',(-2.61331282407732E-14,0.,-117.693146607172));
#473=CARTESIAN_POINT('Origin',(0.,116.693146607172,0.));
#474=CARTESIAN_POINT('Origin',(0.,116.693146607172,0.));
#475=CARTESIAN_POINT('',(0.,117.693146607172,0.));
#476=CARTESIAN_POINT('Origin',(0.,117.693146607172,0.));
#477=CARTESIAN_POINT('Origin',(0.,-117.693146607172,0.));
#478=CARTESIAN_POINT('Origin',(116.693146607172,0.,0.));
#479=CARTESIAN_POINT('Origin',(116.693146607172,0.,0.));
#480=CARTESIAN_POINT('',(117.693146607172,0.,0.));
#481=CARTESIAN_POINT('Origin',(117.693146607172,0.,0.));
#482=CARTESIAN_POINT('Origin',(-117.693146607172,0.,0.));
#483=CARTESIAN_POINT('Origin',(0.,0.,0.));
#484=CARTESIAN_POINT('Origin',(0.,0.,0.));
#485=CARTESIAN_POINT('Origin',(0.,0.,0.));
#486=CARTESIAN_POINT('Origin',(0.,0.,0.));
#487=CARTESIAN_POINT('Origin',(0.,0.,0.));
#488=UNCERTAINTY_MEASURE_WITH_UNIT(LENGTH_MEASURE(0.01),#492,
'DISTANCE_ACCURACY_VALUE',
'Maximum model space distance between geometric entities at asserted c
onnectivities');
#489=UNCERTAINTY_MEASURE_WITH_UNIT(LENGTH_MEASURE(0.01),#492,
'DISTANCE_ACCURACY_VALUE',
'Maximum model space distance between geometric entities at asserted c
onnectivities');
#490=(
GEOMETRIC_REPRESENTATION_CONTEXT(3)
GLOBAL_UNCERTAINTY_ASSIGNED_CONTEXT((#488))
GLOBAL_UNIT_ASSIGNED_CONTEXT((#492,#495,#494))
REPRESENTATION_CONTEXT('','3D')
);
#491=(
GEOMETRIC_REPRESENTATION_CONTEXT(3)
GLOBAL_UNCERTAINTY_ASSIGNED_CONTEXT((#489))
GLOBAL_UNIT_ASSIGNED_CONTEXT((#492,#495,#494))
REPRESENTATION_CONTEXT('','3D')
);
#492=(
LENGTH_UNIT()
NAMED_UNIT(*)
SI_UNIT(.MILLI.,.METRE.)
);
#493=(
LENGTH_UNIT()
NAMED_UNIT(*)
SI_UNIT(.CENTI.,.METRE.)
);
#494=(
NAMED_UNIT(*)
SI_UNIT($,.STERADIAN.)
SOLID_ANGLE_UNIT()
);
#495=(
NAMED_UNIT(*)
PLANE_ANGLE_UNIT()
SI_UNIT($,.RADIAN.)
);
#496=SHAPE_DEFINITION_REPRESENTATION(#497,#498);
#497=PRODUCT_DEFINITION_SHAPE('',$,#500);
#498=SHAPE_REPRESENTATION('',(#252),#490);
#499=PRODUCT_DEFINITION_CONTEXT('part definition',#504,'design');
#500=PRODUCT_DEFINITION('A180','A180',#501,#499);
#501=PRODUCT_DEFINITION_FORMATION('',$,#506);
#502=PRODUCT_RELATED_PRODUCT_CATEGORY('A180','A180',(#506));
#503=APPLICATION_PROTOCOL_DEFINITION('international standard',
'ap242_managed_model_based_3d_engineering',2011,#504);
#504=APPLICATION_CONTEXT('Managed model based 3d engineering');
#505=PRODUCT_CONTEXT('part definition',#504,'mechanical');
#506=PRODUCT('A180','A180',$,(#505));
#507=PRESENTATION_STYLE_ASSIGNMENT((#509));
#508=PRESENTATION_STYLE_ASSIGNMENT((NULL_STYLE(.NULL.)));
#509=SURFACE_STYLE_USAGE(.BOTH.,#510);
#510=SURFACE_SIDE_STYLE('',(#511));
#511=SURFACE_STYLE_FILL_AREA(#512);
#512=FILL_AREA_STYLE('',(#513));
#513=FILL_AREA_STYLE_COLOUR('',#514);
#514=COLOUR_RGB('',0.749019607843137,0.749019607843137,0.749019607843137);
ENDSEC;
END-ISO-10303-21;
