ISO-10303-21;
HEADER;
FILE_DESCRIPTION (( 'STEP AP214' ),
    '1' );
FILE_NAME ('A214 Òðàïåöåèäàëüíûé âèíò 8õ220 ìì, 4-õ çàõîäíûé, øàã 2 ìì.STEP',
    '2019-09-11T10:06:16',
    ( 'Windows User' ),
    ( '' ),
    'SwSTEP 2.0',
    'SolidWorks 2018',
    '' );
FILE_SCHEMA (( 'AUTOMOTIVE_DESIGN' ));
ENDSEC;

DATA;
#1 = DIRECTION ( 'NONE',  ( 1.000000000000000000, 0.0000000000000000000, 0.0000000000000000000 ) ) ;
#2 = FACE_OUTER_BOUND ( 'NONE', #13, .T. ) ;
#3 = SURFACE_STYLE_USAGE ( .BOTH. , #136 ) ;
#4 = PRESENTATION_LAYER_ASSIGNMENT (  '', '', ( #137 ) ) ;
#5 = MANIFOLD_SOLID_BREP ( 'Áîáûøêà-Âûòÿíóòü1', #95 ) ;
#6 = SURFACE_STYLE_USAGE ( .BOTH. , #26 ) ;
#7 = PLANE ( 'NONE',  #94 ) ;
#8 = FACE_OUTER_BOUND ( 'NONE', #46, .T. ) ;
#9 = PRESENTATION_STYLE_ASSIGNMENT (( #98 ) ) ;
#10 =( NAMED_UNIT ( * ) SI_UNIT ( $, .STERADIAN. ) SOLID_ANGLE_UNIT ( ) );
#11 = AXIS2_PLACEMENT_3D ( 'NONE', #164, #22, #97 ) ;
#12 = EDGE_CURVE ( 'NONE', #56, #29, #28, .T. ) ;
#13 = EDGE_LOOP ( 'NONE', ( #152, #160, #155, #25 ) ) ;
#14 = FILL_AREA_STYLE_COLOUR ( '', #159 ) ;
#15 = CIRCLE ( 'NONE', #60, 4.000000000000000000 ) ;
#16 = DIRECTION ( 'NONE',  ( 0.0000000000000000000, 0.0000000000000000000, -1.000000000000000000 ) ) ;
#17 = DIRECTION ( 'NONE',  ( 0.0000000000000000000, 0.0000000000000000000, 1.000000000000000000 ) ) ;
#18 = CARTESIAN_POINT ( 'NONE',  ( 220.0000000000000000, 0.0000000000000000000, 0.0000000000000000000 ) ) ;
#19 = SURFACE_STYLE_FILL_AREA ( #104 ) ;
#20 = ADVANCED_FACE ( 'NONE', ( #166 ), #90, .T. ) ;
#21 = CARTESIAN_POINT ( 'NONE',  ( 0.0000000000000000000, 0.0000000000000000000, 4.000000000000000000 ) ) ;
#22 = DIRECTION ( 'NONE',  ( -1.000000000000000000, -0.0000000000000000000, -0.0000000000000000000 ) ) ;
#23 =( LENGTH_UNIT ( ) NAMED_UNIT ( * ) SI_UNIT ( .MILLI., .METRE. ) );
#24 = AXIS2_PLACEMENT_3D ( 'NONE', #131, #42, #69 ) ;
#25 = ORIENTED_EDGE ( 'NONE', *, *, #101, .T. ) ;
#26 = SURFACE_SIDE_STYLE ('',( #19 ) ) ;
#27 = CARTESIAN_POINT ( 'NONE',  ( 220.0000000000000000, 0.0000000000000000000, 0.0000000000000000000 ) ) ;
#28 = CIRCLE ( 'NONE', #80, 4.000000000000000000 ) ;
#29 = VERTEX_POINT ( 'NONE', #48 ) ;
#30 = AXIS2_PLACEMENT_3D ( 'NONE', #135, #49, #63 ) ;
#31 = CARTESIAN_POINT ( 'NONE',  ( 0.0000000000000000000, 4.898587196589412829E-16, -4.000000000000000000 ) ) ;
#32 = ORIENTED_EDGE ( 'NONE', *, *, #12, .T. ) ;
#33 = EDGE_CURVE ( 'NONE', #76, #126, #15, .T. ) ;
#34 = PRODUCT_DEFINITION_FORMATION_WITH_SPECIFIED_SOURCE ( 'ANY', '', #154, .NOT_KNOWN. ) ;
#35 =( LENGTH_UNIT ( ) NAMED_UNIT ( * ) SI_UNIT ( .MILLI., .METRE. ) );
#36 = APPLICATION_PROTOCOL_DEFINITION ( 'draft international standard', 'automotive_design', 1998, #132 ) ;
#37 = FILL_AREA_STYLE ('',( #14 ) ) ;
#38 = MECHANICAL_DESIGN_GEOMETRIC_PRESENTATION_REPRESENTATION (  '', ( #44 ), #52 ) ;
#39 = CARTESIAN_POINT ( 'NONE',  ( 220.0000000000000000, 0.0000000000000000000, 0.0000000000000000000 ) ) ;
#40 =( LENGTH_UNIT ( ) NAMED_UNIT ( * ) SI_UNIT ( .MILLI., .METRE. ) );
#41 = ADVANCED_BREP_SHAPE_REPRESENTATION ( 'A214 T¨ðÿõ¡õøôðû¹ývù òøýª 8¿220 üü, 4-¿ ÷ð¿þôývù, °ðó 2 üü', ( #5, #24 ), #128 ) ;
#42 = DIRECTION ( 'NONE',  ( 0.0000000000000000000, 0.0000000000000000000, 1.000000000000000000 ) ) ;
#43 = FILL_AREA_STYLE ('',( #53 ) ) ;
#44 = STYLED_ITEM ( 'NONE', ( #79 ), #5 ) ;
#45 = PRODUCT_DEFINITION_CONTEXT ( 'detailed design', #99, 'design' ) ;
#46 = EDGE_LOOP ( 'NONE', ( #114, #110, #151, #61 ) ) ;
#47 = UNCERTAINTY_MEASURE_WITH_UNIT (LENGTH_MEASURE( 1.000000000000000082E-05 ), #40, 'distance_accuracy_value', 'NONE');
#48 = CARTESIAN_POINT ( 'NONE',  ( 220.0000000000000000, 0.0000000000000000000, 4.000000000000000000 ) ) ;
#49 = DIRECTION ( 'NONE',  ( 1.000000000000000000, 0.0000000000000000000, 0.0000000000000000000 ) ) ;
#50 =( LENGTH_UNIT ( ) NAMED_UNIT ( * ) SI_UNIT ( .MILLI., .METRE. ) );
#51 =( NAMED_UNIT ( * ) SI_UNIT ( $, .STERADIAN. ) SOLID_ANGLE_UNIT ( ) );
#52 =( GEOMETRIC_REPRESENTATION_CONTEXT ( 3 ) GLOBAL_UNCERTAINTY_ASSIGNED_CONTEXT ( ( #47 ) ) GLOBAL_UNIT_ASSIGNED_CONTEXT ( ( #40, #77, #51 ) ) REPRESENTATION_CONTEXT ( 'NONE', 'WORKASPACE' ) );
#53 = FILL_AREA_STYLE_COLOUR ( '', #141 ) ;
#54 = SURFACE_STYLE_FILL_AREA ( #37 ) ;
#55 = EDGE_CURVE ( 'NONE', #29, #56, #145, .T. ) ;
#56 = VERTEX_POINT ( 'NONE', #125 ) ;
#57 = DIRECTION ( 'NONE',  ( -1.000000000000000000, -0.0000000000000000000, -0.0000000000000000000 ) ) ;
#58 = CARTESIAN_POINT ( 'NONE',  ( 220.0000000000000000, 4.898587196589412829E-16, -4.000000000000000000 ) ) ;
#59 = PRESENTATION_STYLE_ASSIGNMENT (( #3 ) ) ;
#60 = AXIS2_PLACEMENT_3D ( 'NONE', #123, #107, #16 ) ;
#61 = ORIENTED_EDGE ( 'NONE', *, *, #134, .F. ) ;
#62 = UNCERTAINTY_MEASURE_WITH_UNIT (LENGTH_MEASURE( 1.000000000000000082E-05 ), #35, 'distance_accuracy_value', 'NONE');
#63 = DIRECTION ( 'NONE',  ( 0.0000000000000000000, 0.0000000000000000000, -1.000000000000000000 ) ) ;
#64 =( NAMED_UNIT ( * ) SI_UNIT ( $, .STERADIAN. ) SOLID_ANGLE_UNIT ( ) );
#65 = PRESENTATION_LAYER_ASSIGNMENT (  '', '', ( #44 ) ) ;
#66 = LINE ( 'NONE', #58, #92 ) ;
#67 = STYLED_ITEM ( 'NONE', ( #59 ), #93 ) ;
#68 = UNCERTAINTY_MEASURE_WITH_UNIT (LENGTH_MEASURE( 1.000000000000000082E-05 ), #50, 'distance_accuracy_value', 'NONE');
#69 = DIRECTION ( 'NONE',  ( 1.000000000000000000, 0.0000000000000000000, 0.0000000000000000000 ) ) ;
#70 =( NAMED_UNIT ( * ) PLANE_ANGLE_UNIT ( ) SI_UNIT ( $, .RADIAN. ) );
#71 = AXIS2_PLACEMENT_3D ( 'NONE', #27, #1, #147 ) ;
#72 = SHAPE_DEFINITION_REPRESENTATION ( #162, #41 ) ;
#73 = CIRCLE ( 'NONE', #109, 4.000000000000000000 ) ;
#74 =( GEOMETRIC_REPRESENTATION_CONTEXT ( 3 ) GLOBAL_UNCERTAINTY_ASSIGNED_CONTEXT ( ( #75 ) ) GLOBAL_UNIT_ASSIGNED_CONTEXT ( ( #169, #87, #10 ) ) REPRESENTATION_CONTEXT ( 'NONE', 'WORKASPACE' ) );
#75 = UNCERTAINTY_MEASURE_WITH_UNIT (LENGTH_MEASURE( 1.000000000000000082E-05 ), #169, 'distance_accuracy_value', 'NONE');
#76 = VERTEX_POINT ( 'NONE', #31 ) ;
#77 =( NAMED_UNIT ( * ) PLANE_ANGLE_UNIT ( ) SI_UNIT ( $, .RADIAN. ) );
#78 = SURFACE_STYLE_FILL_AREA ( #43 ) ;
#79 = PRESENTATION_STYLE_ASSIGNMENT (( #6 ) ) ;
#80 = AXIS2_PLACEMENT_3D ( 'NONE', #39, #122, #108 ) ;
#81 = CARTESIAN_POINT ( 'NONE',  ( 0.0000000000000000000, 0.0000000000000000000, 0.0000000000000000000 ) ) ;
#82 = MECHANICAL_DESIGN_GEOMETRIC_PRESENTATION_REPRESENTATION (  '', ( #67 ), #113 ) ;
#83 = EDGE_LOOP ( 'NONE', ( #119, #168 ) ) ;
#84 = SURFACE_SIDE_STYLE ('',( #78 ) ) ;
#85 = PRODUCT_CONTEXT ( 'NONE', #132, 'mechanical' ) ;
#86 = SURFACE_SIDE_STYLE ('',( #140 ) ) ;
#87 =( NAMED_UNIT ( * ) PLANE_ANGLE_UNIT ( ) SI_UNIT ( $, .RADIAN. ) );
#88 = PRESENTATION_LAYER_ASSIGNMENT (  '', '', ( #67 ) ) ;
#89 = VECTOR ( 'NONE', #57, 1000.000000000000000 ) ;
#90 = PLANE ( 'NONE',  #71 ) ;
#91 = DIRECTION ( 'NONE',  ( 1.000000000000000000, 0.0000000000000000000, 0.0000000000000000000 ) ) ;
#92 = VECTOR ( 'NONE', #96, 1000.000000000000000 ) ;
#93 = ADVANCED_FACE ( 'NONE', ( #8 ), #143, .T. ) ;
#94 = AXIS2_PLACEMENT_3D ( 'NONE', #81, #91, #112 ) ;
#95 = CLOSED_SHELL ( 'NONE', ( #93, #115, #20, #100 ) ) ;
#96 = DIRECTION ( 'NONE',  ( -1.000000000000000000, -0.0000000000000000000, -0.0000000000000000000 ) ) ;
#97 = DIRECTION ( 'NONE',  ( 0.0000000000000000000, 0.0000000000000000000, 1.000000000000000000 ) ) ;
#98 = SURFACE_STYLE_USAGE ( .BOTH. , #84 ) ;
#99 = APPLICATION_CONTEXT ( 'automotive_design' ) ;
#100 = ADVANCED_FACE ( 'NONE', ( #148 ), #7, .F. ) ;
#101 = EDGE_CURVE ( 'NONE', #126, #76, #73, .T. ) ;
#102 = PRODUCT_RELATED_PRODUCT_CATEGORY ( 'part', '', ( #154 ) ) ;
#103 = FILL_AREA_STYLE_COLOUR ( '', #129 ) ;
#104 = FILL_AREA_STYLE ('',( #103 ) ) ;
#105 = CYLINDRICAL_SURFACE ( 'NONE', #11, 4.000000000000000000 ) ;
#106 = UNCERTAINTY_MEASURE_WITH_UNIT (LENGTH_MEASURE( 1.000000000000000082E-05 ), #23, 'distance_accuracy_value', 'NONE');
#107 = DIRECTION ( 'NONE',  ( 1.000000000000000000, 0.0000000000000000000, 0.0000000000000000000 ) ) ;
#108 = DIRECTION ( 'NONE',  ( 0.0000000000000000000, 0.0000000000000000000, -1.000000000000000000 ) ) ;
#109 = AXIS2_PLACEMENT_3D ( 'NONE', #138, #167, #142 ) ;
#110 = ORIENTED_EDGE ( 'NONE', *, *, #161, .T. ) ;
#111 = DIRECTION ( 'NONE',  ( -1.000000000000000000, -0.0000000000000000000, -0.0000000000000000000 ) ) ;
#112 = DIRECTION ( 'NONE',  ( 0.0000000000000000000, 0.0000000000000000000, -1.000000000000000000 ) ) ;
#113 =( GEOMETRIC_REPRESENTATION_CONTEXT ( 3 ) GLOBAL_UNCERTAINTY_ASSIGNED_CONTEXT ( ( #68 ) ) GLOBAL_UNIT_ASSIGNED_CONTEXT ( ( #50, #146, #64 ) ) REPRESENTATION_CONTEXT ( 'NONE', 'WORKASPACE' ) );
#114 = ORIENTED_EDGE ( 'NONE', *, *, #12, .F. ) ;
#115 = ADVANCED_FACE ( 'NONE', ( #2 ), #105, .T. ) ;
#116 =( NAMED_UNIT ( * ) SI_UNIT ( $, .STERADIAN. ) SOLID_ANGLE_UNIT ( ) );
#117 = CARTESIAN_POINT ( 'NONE',  ( 220.0000000000000000, 0.0000000000000000000, 4.000000000000000000 ) ) ;
#118 = APPLICATION_PROTOCOL_DEFINITION ( 'draft international standard', 'automotive_design', 1998, #99 ) ;
#119 = ORIENTED_EDGE ( 'NONE', *, *, #101, .F. ) ;
#120 = STYLED_ITEM ( 'NONE', ( #9 ), #115 ) ;
#121 = PRESENTATION_STYLE_ASSIGNMENT (( #170 ) ) ;
#122 = DIRECTION ( 'NONE',  ( 1.000000000000000000, 0.0000000000000000000, 0.0000000000000000000 ) ) ;
#123 = CARTESIAN_POINT ( 'NONE',  ( 0.0000000000000000000, 0.0000000000000000000, 0.0000000000000000000 ) ) ;
#124 = PRESENTATION_LAYER_ASSIGNMENT (  '', '', ( #120 ) ) ;
#125 = CARTESIAN_POINT ( 'NONE',  ( 220.0000000000000000, 4.898587196589412829E-16, -4.000000000000000000 ) ) ;
#126 = VERTEX_POINT ( 'NONE', #21 ) ;
#127 = ORIENTED_EDGE ( 'NONE', *, *, #55, .T. ) ;
#128 =( GEOMETRIC_REPRESENTATION_CONTEXT ( 3 ) GLOBAL_UNCERTAINTY_ASSIGNED_CONTEXT ( ( #62 ) ) GLOBAL_UNIT_ASSIGNED_CONTEXT ( ( #35, #157, #156 ) ) REPRESENTATION_CONTEXT ( 'NONE', 'WORKASPACE' ) );
#129 = COLOUR_RGB ( '',0.7960784313725489669, 0.8235294117647058432, 0.9372549019607843146 ) ;
#130 = FILL_AREA_STYLE ('',( #139 ) ) ;
#131 = CARTESIAN_POINT ( 'NONE',  ( 0.0000000000000000000, 0.0000000000000000000, 0.0000000000000000000 ) ) ;
#132 = APPLICATION_CONTEXT ( 'automotive_design' ) ;
#133 =( GEOMETRIC_REPRESENTATION_CONTEXT ( 3 ) GLOBAL_UNCERTAINTY_ASSIGNED_CONTEXT ( ( #106 ) ) GLOBAL_UNIT_ASSIGNED_CONTEXT ( ( #23, #70, #116 ) ) REPRESENTATION_CONTEXT ( 'NONE', 'WORKASPACE' ) );
#134 = EDGE_CURVE ( 'NONE', #29, #126, #163, .T. ) ;
#135 = CARTESIAN_POINT ( 'NONE',  ( 220.0000000000000000, 0.0000000000000000000, 0.0000000000000000000 ) ) ;
#136 = SURFACE_SIDE_STYLE ('',( #54 ) ) ;
#137 = STYLED_ITEM ( 'NONE', ( #121 ), #41 ) ;
#138 = CARTESIAN_POINT ( 'NONE',  ( 0.0000000000000000000, 0.0000000000000000000, 0.0000000000000000000 ) ) ;
#139 = FILL_AREA_STYLE_COLOUR ( '', #150 ) ;
#140 = SURFACE_STYLE_FILL_AREA ( #130 ) ;
#141 = COLOUR_RGB ( '',0.7960784313725489669, 0.8235294117647058432, 0.9372549019607843146 ) ;
#142 = DIRECTION ( 'NONE',  ( 0.0000000000000000000, 0.0000000000000000000, -1.000000000000000000 ) ) ;
#143 = CYLINDRICAL_SURFACE ( 'NONE', #158, 4.000000000000000000 ) ;
#144 = PRODUCT_DEFINITION ( 'UNKNOWN', '', #34, #45 ) ;
#145 = CIRCLE ( 'NONE', #30, 4.000000000000000000 ) ;
#146 =( NAMED_UNIT ( * ) PLANE_ANGLE_UNIT ( ) SI_UNIT ( $, .RADIAN. ) );
#147 = DIRECTION ( 'NONE',  ( 0.0000000000000000000, 0.0000000000000000000, -1.000000000000000000 ) ) ;
#148 = FACE_OUTER_BOUND ( 'NONE', #83, .T. ) ;
#149 = MECHANICAL_DESIGN_GEOMETRIC_PRESENTATION_REPRESENTATION (  '', ( #120 ), #133 ) ;
#150 = COLOUR_RGB ( '',0.7960784313725489669, 0.8235294117647058432, 0.9372549019607843146 ) ;
#151 = ORIENTED_EDGE ( 'NONE', *, *, #33, .T. ) ;
#152 = ORIENTED_EDGE ( 'NONE', *, *, #161, .F. ) ;
#153 = MECHANICAL_DESIGN_GEOMETRIC_PRESENTATION_REPRESENTATION (  '', ( #137 ), #74 ) ;
#154 = PRODUCT ( 'A214 Òðàïåöåèäàëüíûé âèíò 8õ220 ìì, 4-õ çàõîäíûé, øàã 2 ìì', 'A214 Òðàïåöåèäàëüíûé âèíò 8õ220 ìì, 4-õ çàõîäíûé, øàã 2 ìì', '', ( #85 ) ) ;
#155 = ORIENTED_EDGE ( 'NONE', *, *, #134, .T. ) ;
#156 =( NAMED_UNIT ( * ) SI_UNIT ( $, .STERADIAN. ) SOLID_ANGLE_UNIT ( ) );
#157 =( NAMED_UNIT ( * ) PLANE_ANGLE_UNIT ( ) SI_UNIT ( $, .RADIAN. ) );
#158 = AXIS2_PLACEMENT_3D ( 'NONE', #18, #111, #17 ) ;
#159 = COLOUR_RGB ( '',0.7960784313725489669, 0.8235294117647058432, 0.9372549019607843146 ) ;
#160 = ORIENTED_EDGE ( 'NONE', *, *, #55, .F. ) ;
#161 = EDGE_CURVE ( 'NONE', #56, #76, #66, .T. ) ;
#162 = PRODUCT_DEFINITION_SHAPE ( 'NONE', 'NONE',  #144 ) ;
#163 = LINE ( 'NONE', #117, #89 ) ;
#164 = CARTESIAN_POINT ( 'NONE',  ( 220.0000000000000000, 0.0000000000000000000, 0.0000000000000000000 ) ) ;
#165 = EDGE_LOOP ( 'NONE', ( #127, #32 ) ) ;
#166 = FACE_OUTER_BOUND ( 'NONE', #165, .T. ) ;
#167 = DIRECTION ( 'NONE',  ( 1.000000000000000000, 0.0000000000000000000, 0.0000000000000000000 ) ) ;
#168 = ORIENTED_EDGE ( 'NONE', *, *, #33, .F. ) ;
#169 =( LENGTH_UNIT ( ) NAMED_UNIT ( * ) SI_UNIT ( .MILLI., .METRE. ) );
#170 = SURFACE_STYLE_USAGE ( .BOTH. , #86 ) ;
ENDSEC;
END-ISO-10303-21;
