ISO-10303-21;
HEADER;
FILE_DESCRIPTION (( 'STEP AP214' ),
    '1' );
FILE_NAME ('A200 Äèñòàíöèîííàÿ âòóëêà 5õ1 8.STEP',
    '2020-10-06T11:27:21',
    ( 'Windows User' ),
    ( '' ),
    'SwSTEP 2.0',
    'SolidWorks 2020',
    '' );
FILE_SCHEMA (( 'AUTOMOTIVE_DESIGN' ));
ENDSEC;

DATA;
#1 =( NAMED_UNIT ( * ) SI_UNIT ( $, .STERADIAN. ) SOLID_ANGLE_UNIT ( ) );
#2 = CONICAL_SURFACE ( 'NONE', #156, 4.900000000000003020, 0.7853981633974396193 ) ;
#3 = DIRECTION ( 'NONE',  ( 0.7071067811865505703, 8.659560562354895880E-17, 0.7071067811865444641 ) ) ;
#4 = VERTEX_POINT ( 'NONE', #186 ) ;
#5 = PRESENTATION_LAYER_ASSIGNMENT (  '', '', ( #282 ) ) ;
#6 = DIRECTION ( 'NONE',  ( -1.000000000000000000, -0.0000000000000000000, -0.0000000000000000000 ) ) ;
#7 = CARTESIAN_POINT ( 'NONE',  ( 3.100000000000001421, 6.123233995736766282E-16, -5.000000000000000000 ) ) ;
#8 = ORIENTED_EDGE ( 'NONE', *, *, #20, .F. ) ;
#9 = DIRECTION ( 'NONE',  ( -0.7071067811865536790, 8.659560562354857670E-17, -0.7071067811865414665 ) ) ;
#10 = CARTESIAN_POINT ( 'NONE',  ( 3.200000000000000178, 0.0000000000000000000, 0.0000000000000000000 ) ) ;
#11 = LINE ( 'NONE', #148, #214 ) ;
#12 = DIRECTION ( 'NONE',  ( 1.000000000000000000, -0.0000000000000000000, -0.0000000000000000000 ) ) ;
#13 = EDGE_LOOP ( 'NONE', ( #126, #226, #283, #172 ) ) ;
#14 = FACE_OUTER_BOUND ( 'NONE', #13, .T. ) ;
#15 = ORIENTED_EDGE ( 'NONE', *, *, #60, .T. ) ;
#16 = LINE ( 'NONE', #184, #196 ) ;
#17 = EDGE_CURVE ( 'NONE', #213, #320, #64, .T. ) ;
#18 = ORIENTED_EDGE ( 'NONE', *, *, #239, .F. ) ;
#19 = VECTOR ( 'NONE', #3, 1000.000000000000000 ) ;
#20 = EDGE_CURVE ( 'NONE', #274, #71, #233, .T. ) ;
#21 = CARTESIAN_POINT ( 'NONE',  ( 0.0000000000000000000, 0.0000000000000000000, 0.0000000000000000000 ) ) ;
#22 = CONICAL_SURFACE ( 'NONE', #313, 2.649999999999999911, 0.7853981633974526089 ) ;
#23 =( LENGTH_UNIT ( ) NAMED_UNIT ( * ) SI_UNIT ( .MILLI., .METRE. ) );
#24 = ADVANCED_FACE ( 'NONE', ( #357 ), #328, .F. ) ;
#25 = CIRCLE ( 'NONE', #327, 2.649999999999999911 ) ;
#26 = DIRECTION ( 'NONE',  ( -1.000000000000000000, 0.0000000000000000000, 0.0000000000000000000 ) ) ;
#27 = VERTEX_POINT ( 'NONE', #134 ) ;
#28 = DIRECTION ( 'NONE',  ( 0.0000000000000000000, 0.0000000000000000000, -1.000000000000000000 ) ) ;
#29 = ORIENTED_EDGE ( 'NONE', *, *, #234, .F. ) ;
#30 = DIRECTION ( 'NONE',  ( 0.7071067811865444641, 0.0000000000000000000, -0.7071067811865505703 ) ) ;
#31 = CARTESIAN_POINT ( 'NONE',  ( 3.200000000000000178, 0.0000000000000000000, 4.900000000000003020 ) ) ;
#32 = ORIENTED_EDGE ( 'NONE', *, *, #319, .F. ) ;
#33 = CARTESIAN_POINT ( 'NONE',  ( 3.000000000000005329, 0.0000000000000000000, 0.0000000000000000000 ) ) ;
#34 = FILL_AREA_STYLE ('',( #224 ) ) ;
#35 = EDGE_LOOP ( 'NONE', ( #140, #102, #32, #351 ) ) ;
#36 = DIRECTION ( 'NONE',  ( 1.000000000000000000, 0.0000000000000000000, 0.0000000000000000000 ) ) ;
#37 = DIRECTION ( 'NONE',  ( 0.0000000000000000000, 0.0000000000000000000, 1.000000000000000000 ) ) ;
#38 = VERTEX_POINT ( 'NONE', #330 ) ;
#39 = DIRECTION ( 'NONE',  ( 0.0000000000000000000, 0.0000000000000000000, -1.000000000000000000 ) ) ;
#40 = FACE_OUTER_BOUND ( 'NONE', #128, .T. ) ;
#41 = AXIS2_PLACEMENT_3D ( 'NONE', #129, #287, #238 ) ;
#42 = DIRECTION ( 'NONE',  ( 0.0000000000000000000, 0.0000000000000000000, -1.000000000000000000 ) ) ;
#43 = ORIENTED_EDGE ( 'NONE', *, *, #326, .T. ) ;
#44 = ORIENTED_EDGE ( 'NONE', *, *, #51, .T. ) ;
#45 = CARTESIAN_POINT ( 'NONE',  ( 3.200000000000000178, 0.0000000000000000000, 0.0000000000000000000 ) ) ;
#46 = AXIS2_PLACEMENT_3D ( 'NONE', #218, #334, #192 ) ;
#47 = AXIS2_PLACEMENT_3D ( 'NONE', #33, #286, #253 ) ;
#48 = EDGE_CURVE ( 'NONE', #355, #320, #220, .T. ) ;
#49 = CONICAL_SURFACE ( 'NONE', #83, 5.000000000000000000, 0.7853981633974439491 ) ;
#50 = ORIENTED_EDGE ( 'NONE', *, *, #131, .T. ) ;
#51 = EDGE_CURVE ( 'NONE', #27, #213, #362, .T. ) ;
#52 = CARTESIAN_POINT ( 'NONE',  ( 3.100000000000001421, 0.0000000000000000000, 0.0000000000000000000 ) ) ;
#53 = CARTESIAN_POINT ( 'NONE',  ( 0.1000000000000002554, 0.0000000000000000000, -5.000000000000000000 ) ) ;
#54 = DIRECTION ( 'NONE',  ( 1.000000000000000000, 0.0000000000000000000, 0.0000000000000000000 ) ) ;
#55 = DIRECTION ( 'NONE',  ( 0.0000000000000000000, 0.0000000000000000000, 1.000000000000000000 ) ) ;
#56 =( LENGTH_UNIT ( ) NAMED_UNIT ( * ) SI_UNIT ( .MILLI., .METRE. ) );
#57 = MANIFOLD_SOLID_BREP ( 'Ôàñêà2', #340 ) ;
#58 = ORIENTED_EDGE ( 'NONE', *, *, #190, .T. ) ;
#59 = FILL_AREA_STYLE ('',( #110 ) ) ;
#60 = EDGE_CURVE ( 'NONE', #167, #4, #137, .T. ) ;
#61 = DIRECTION ( 'NONE',  ( 0.0000000000000000000, 0.0000000000000000000, -1.000000000000000000 ) ) ;
#62 = AXIS2_PLACEMENT_3D ( 'NONE', #144, #115, #61 ) ;
#63 = ORIENTED_EDGE ( 'NONE', *, *, #91, .T. ) ;
#64 = CIRCLE ( 'NONE', #103, 5.000000000000000000 ) ;
#65 = DIRECTION ( 'NONE',  ( -1.000000000000000000, -0.0000000000000000000, -0.0000000000000000000 ) ) ;
#66 = FACE_OUTER_BOUND ( 'NONE', #298, .T. ) ;
#67 = ORIENTED_EDGE ( 'NONE', *, *, #246, .T. ) ;
#68 = DIRECTION ( 'NONE',  ( 0.0000000000000000000, 0.0000000000000000000, -1.000000000000000000 ) ) ;
#69 = EDGE_CURVE ( 'NONE', #229, #236, #222, .T. ) ;
#70 = ORIENTED_EDGE ( 'NONE', *, *, #225, .T. ) ;
#71 = VERTEX_POINT ( 'NONE', #174 ) ;
#72 = CARTESIAN_POINT ( 'NONE',  ( 0.0000000000000000000, 3.245314017740485962E-16, -2.649999999999999911 ) ) ;
#73 = AXIS2_PLACEMENT_3D ( 'NONE', #52, #26, #360 ) ;
#74 = EDGE_LOOP ( 'NONE', ( #264, #63, #67, #95 ) ) ;
#75 = AXIS2_PLACEMENT_3D ( 'NONE', #347, #263, #155 ) ;
#76 = MECHANICAL_DESIGN_GEOMETRIC_PRESENTATION_REPRESENTATION (  '', ( #282 ), #316 ) ;
#77 = COLOUR_RGB ( '',0.8666666666666666963, 0.8666666666666666963, 0.8901960784313724950 ) ;
#78 = SURFACE_STYLE_USAGE ( .BOTH. , #197 ) ;
#79 = CONICAL_SURFACE ( 'NONE', #299, 4.900000000000003020, 0.7853981633974396193 ) ;
#80 =( NAMED_UNIT ( * ) PLANE_ANGLE_UNIT ( ) SI_UNIT ( $, .RADIAN. ) );
#81 = SHAPE_DEFINITION_REPRESENTATION ( #321, #146 ) ;
#82 = EDGE_LOOP ( 'NONE', ( #90, #70, #285, #143 ) ) ;
#83 = AXIS2_PLACEMENT_3D ( 'NONE', #258, #12, #204 ) ;
#84 = APPLICATION_PROTOCOL_DEFINITION ( 'draft international standard', 'automotive_design', 1998, #271 ) ;
#85 = CARTESIAN_POINT ( 'NONE',  ( 3.200000000000000178, 0.0000000000000000000, 0.0000000000000000000 ) ) ;
#86 = CARTESIAN_POINT ( 'NONE',  ( 3.000000000000005329, 0.0000000000000000000, -2.649999999999999911 ) ) ;
#87 = SURFACE_SIDE_STYLE ('',( #165 ) ) ;
#88 = CARTESIAN_POINT ( 'NONE',  ( 3.200000000000000178, 0.0000000000000000000, 0.0000000000000000000 ) ) ;
#89 = CYLINDRICAL_SURFACE ( 'NONE', #217, 5.000000000000000000 ) ;
#90 = ORIENTED_EDGE ( 'NONE', *, *, #259, .T. ) ;
#91 = EDGE_CURVE ( 'NONE', #38, #120, #25, .T. ) ;
#92 = AXIS2_PLACEMENT_3D ( 'NONE', #106, #188, #300 ) ;
#93 = DIRECTION ( 'NONE',  ( 0.0000000000000000000, 0.0000000000000000000, -1.000000000000000000 ) ) ;
#94 = LINE ( 'NONE', #292, #191 ) ;
#95 = ORIENTED_EDGE ( 'NONE', *, *, #69, .F. ) ;
#96 = FACE_OUTER_BOUND ( 'NONE', #255, .T. ) ;
#97 = CARTESIAN_POINT ( 'NONE',  ( 3.200000000000000178, 6.123233995736766282E-16, -5.000000000000000000 ) ) ;
#98 = ORIENTED_EDGE ( 'NONE', *, *, #17, .T. ) ;
#99 = PRODUCT ( 'A200 Äèñòàíöèîííàÿ âòóëêà 5õ1 8', 'A200 Äèñòàíöèîííàÿ âòóëêà 5õ1 8', '', ( #311 ) ) ;
#100 = DIRECTION ( 'NONE',  ( -1.000000000000000000, -0.0000000000000000000, -0.0000000000000000000 ) ) ;
#101 =( GEOMETRIC_REPRESENTATION_CONTEXT ( 3 ) GLOBAL_UNCERTAINTY_ASSIGNED_CONTEXT ( ( #331 ) ) GLOBAL_UNIT_ASSIGNED_CONTEXT ( ( #56, #270, #1 ) ) REPRESENTATION_CONTEXT ( 'NONE', 'WORKASPACE' ) );
#102 = ORIENTED_EDGE ( 'NONE', *, *, #361, .T. ) ;
#103 = AXIS2_PLACEMENT_3D ( 'NONE', #296, #267, #159 ) ;
#104 = ADVANCED_FACE ( 'NONE', ( #257 ), #194, .F. ) ;
#105 = EDGE_LOOP ( 'NONE', ( #175, #157 ) ) ;
#106 = CARTESIAN_POINT ( 'NONE',  ( 3.200000000000000178, 0.0000000000000000000, 0.0000000000000000000 ) ) ;
#107 = AXIS2_PLACEMENT_3D ( 'NONE', #280, #170, #256 ) ;
#108 = ADVANCED_FACE ( 'NONE', ( #244, #228 ), #345, .F. ) ;
#109 = APPLICATION_PROTOCOL_DEFINITION ( 'draft international standard', 'automotive_design', 1998, #297 ) ;
#110 = FILL_AREA_STYLE_COLOUR ( '', #77 ) ;
#111 = CIRCLE ( 'NONE', #46, 2.649999999999999911 ) ;
#112 =( NAMED_UNIT ( * ) PLANE_ANGLE_UNIT ( ) SI_UNIT ( $, .RADIAN. ) );
#113 = EDGE_CURVE ( 'NONE', #124, #4, #114, .T. ) ;
#114 = CIRCLE ( 'NONE', #73, 5.000000000000000000 ) ;
#115 = DIRECTION ( 'NONE',  ( 1.000000000000000000, 0.0000000000000000000, 0.0000000000000000000 ) ) ;
#116 = CYLINDRICAL_SURFACE ( 'NONE', #158, 5.000000000000000000 ) ;
#117 = LINE ( 'NONE', #86, #325 ) ;
#118 = DIRECTION ( 'NONE',  ( -1.000000000000000000, -0.0000000000000000000, -0.0000000000000000000 ) ) ;
#119 = CARTESIAN_POINT ( 'NONE',  ( 3.200000000000000178, 0.0000000000000000000, 0.0000000000000000000 ) ) ;
#120 = VERTEX_POINT ( 'NONE', #254 ) ;
#121 = COLOUR_RGB ( '',0.8666666666666666963, 0.8666666666666666963, 0.8901960784313724950 ) ;
#122 = CARTESIAN_POINT ( 'NONE',  ( 3.200000000000000178, 6.062001655779400483E-16, -4.900000000000003020 ) ) ;
#123 = DIRECTION ( 'NONE',  ( 0.0000000000000000000, 0.0000000000000000000, 1.000000000000000000 ) ) ;
#124 = VERTEX_POINT ( 'NONE', #7 ) ;
#125 = DIRECTION ( 'NONE',  ( 1.000000000000000000, 0.0000000000000000000, 0.0000000000000000000 ) ) ;
#126 = ORIENTED_EDGE ( 'NONE', *, *, #51, .F. ) ;
#127 = MECHANICAL_DESIGN_GEOMETRIC_PRESENTATION_REPRESENTATION (  '', ( #279 ), #101 ) ;
#128 = EDGE_LOOP ( 'NONE', ( #346, #153, #324, #8 ) ) ;
#129 = CARTESIAN_POINT ( 'NONE',  ( 3.100000000000001421, 0.0000000000000000000, 0.0000000000000000000 ) ) ;
#130 = CARTESIAN_POINT ( 'NONE',  ( 3.200000000000000178, 0.0000000000000000000, 0.0000000000000000000 ) ) ;
#131 = EDGE_CURVE ( 'NONE', #27, #355, #303, .T. ) ;
#132 =( GEOMETRIC_REPRESENTATION_CONTEXT ( 3 ) GLOBAL_UNCERTAINTY_ASSIGNED_CONTEXT ( ( #135 ) ) GLOBAL_UNIT_ASSIGNED_CONTEXT ( ( #216, #80, #168 ) ) REPRESENTATION_CONTEXT ( 'NONE', 'WORKASPACE' ) );
#133 = AXIS2_PLACEMENT_3D ( 'NONE', #45, #125, #42 ) ;
#134 = CARTESIAN_POINT ( 'NONE',  ( 0.0000000000000000000, 6.062001655779398511E-16, 4.900000000000000355 ) ) ;
#135 = UNCERTAINTY_MEASURE_WITH_UNIT (LENGTH_MEASURE( 1.000000000000000082E-05 ), #216, 'distance_accuracy_value', 'NONE');
#136 = CARTESIAN_POINT ( 'NONE',  ( 0.0000000000000000000, 0.0000000000000000000, -4.900000000000000355 ) ) ;
#137 = LINE ( 'NONE', #281, #269 ) ;
#138 = SURFACE_STYLE_FILL_AREA ( #59 ) ;
#139 = ORIENTED_EDGE ( 'NONE', *, *, #309, .T. ) ;
#140 = ORIENTED_EDGE ( 'NONE', *, *, #309, .F. ) ;
#141 = PRESENTATION_LAYER_ASSIGNMENT (  '', '', ( #279 ) ) ;
#142 = FACE_OUTER_BOUND ( 'NONE', #198, .T. ) ;
#143 = ORIENTED_EDGE ( 'NONE', *, *, #326, .F. ) ;
#144 = CARTESIAN_POINT ( 'NONE',  ( 3.000000000000005329, 0.0000000000000000000, 0.0000000000000000000 ) ) ;
#145 = CARTESIAN_POINT ( 'NONE',  ( 3.000000000000005329, 0.0000000000000000000, 0.0000000000000000000 ) ) ;
#146 = ADVANCED_BREP_SHAPE_REPRESENTATION ( 'A200 -ø¸ªðý¡øþýýð  òªºûúð 5¿1 8', ( #57, #302 ), #132 ) ;
#147 = ORIENTED_EDGE ( 'NONE', *, *, #48, .F. ) ;
#148 = CARTESIAN_POINT ( 'NONE',  ( 3.200000000000000178, 6.000769315822034684E-16, -4.900000000000003020 ) ) ;
#149 = CARTESIAN_POINT ( 'NONE',  ( 3.200000000000000178, 0.0000000000000000000, 0.0000000000000000000 ) ) ;
#150 = ORIENTED_EDGE ( 'NONE', *, *, #20, .T. ) ;
#151 = CARTESIAN_POINT ( 'NONE',  ( 0.1000000000000002554, 6.123233995736766282E-16, -5.000000000000000000 ) ) ;
#152 = AXIS2_PLACEMENT_3D ( 'NONE', #88, #231, #93 ) ;
#153 = ORIENTED_EDGE ( 'NONE', *, *, #91, .F. ) ;
#154 = PRODUCT_RELATED_PRODUCT_CATEGORY ( 'part', '', ( #99 ) ) ;
#155 = DIRECTION ( 'NONE',  ( 0.0000000000000000000, 0.0000000000000000000, -1.000000000000000000 ) ) ;
#156 = AXIS2_PLACEMENT_3D ( 'NONE', #235, #341, #333 ) ;
#157 = ORIENTED_EDGE ( 'NONE', *, *, #69, .T. ) ;
#158 = AXIS2_PLACEMENT_3D ( 'NONE', #149, #100, #123 ) ;
#159 = DIRECTION ( 'NONE',  ( 0.0000000000000000000, 0.0000000000000000000, -1.000000000000000000 ) ) ;
#160 = VECTOR ( 'NONE', #248, 1000.000000000000000 ) ;
#161 = AXIS2_PLACEMENT_3D ( 'NONE', #249, #363, #28 ) ;
#162 = PRODUCT_DEFINITION_CONTEXT ( 'detailed design', #297, 'design' ) ;
#163 = PRODUCT_DEFINITION ( 'UNKNOWN', '', #337, #162 ) ;
#164 = AXIS2_PLACEMENT_3D ( 'NONE', #173, #36, #179 ) ;
#165 = SURFACE_STYLE_FILL_AREA ( #34 ) ;
#166 = ADVANCED_FACE ( 'NONE', ( #342 ), #79, .T. ) ;
#167 = VERTEX_POINT ( 'NONE', #31 ) ;
#168 =( NAMED_UNIT ( * ) SI_UNIT ( $, .STERADIAN. ) SOLID_ANGLE_UNIT ( ) );
#169 = DIRECTION ( 'NONE',  ( 0.0000000000000000000, 0.0000000000000000000, -1.000000000000000000 ) ) ;
#170 = DIRECTION ( 'NONE',  ( 1.000000000000000000, -0.0000000000000000000, -0.0000000000000000000 ) ) ;
#171 = DIRECTION ( 'NONE',  ( 1.000000000000000000, 0.0000000000000000000, 0.0000000000000000000 ) ) ;
#172 = ORIENTED_EDGE ( 'NONE', *, *, #17, .F. ) ;
#173 = CARTESIAN_POINT ( 'NONE',  ( 3.200000000000000178, 0.0000000000000000000, 0.0000000000000000000 ) ) ;
#174 = CARTESIAN_POINT ( 'NONE',  ( 3.200000000000000178, 0.0000000000000000000, -2.849999999999996536 ) ) ;
#175 = ORIENTED_EDGE ( 'NONE', *, *, #358, .T. ) ;
#176 = CIRCLE ( 'NONE', #354, 4.900000000000000355 ) ;
#177 = CARTESIAN_POINT ( 'NONE',  ( 3.000000000000005329, 0.0000000000000000000, 0.0000000000000000000 ) ) ;
#178 = EDGE_LOOP ( 'NONE', ( #139, #212, #364, #288 ) ) ;
#179 = DIRECTION ( 'NONE',  ( 0.0000000000000000000, 0.0000000000000000000, -1.000000000000000000 ) ) ;
#180 = CARTESIAN_POINT ( 'NONE',  ( 0.1000000000000002554, 0.0000000000000000000, 5.000000000000000000 ) ) ;
#181 = ORIENTED_EDGE ( 'NONE', *, *, #259, .F. ) ;
#182 = ORIENTED_EDGE ( 'NONE', *, *, #319, .T. ) ;
#183 = AXIS2_PLACEMENT_3D ( 'NONE', #130, #268, #323 ) ;
#184 = CARTESIAN_POINT ( 'NONE',  ( 3.200000000000000178, 0.0000000000000000000, 2.649999999999999911 ) ) ;
#185 = CARTESIAN_POINT ( 'NONE',  ( 3.200000000000000178, 0.0000000000000000000, 0.0000000000000000000 ) ) ;
#186 = CARTESIAN_POINT ( 'NONE',  ( 3.100000000000001421, 0.0000000000000000000, 5.000000000000000000 ) ) ;
#187 = CIRCLE ( 'NONE', #133, 4.900000000000003020 ) ;
#188 = DIRECTION ( 'NONE',  ( -1.000000000000000000, -0.0000000000000000000, -0.0000000000000000000 ) ) ;
#189 = ADVANCED_FACE ( 'NONE', ( #142 ), #116, .T. ) ;
#190 = EDGE_CURVE ( 'NONE', #355, #27, #176, .T. ) ;
#191 = VECTOR ( 'NONE', #206, 1000.000000000000000 ) ;
#192 = DIRECTION ( 'NONE',  ( 0.0000000000000000000, 0.0000000000000000000, -1.000000000000000000 ) ) ;
#193 = CARTESIAN_POINT ( 'NONE',  ( 0.0000000000000000000, 0.0000000000000000000, 0.0000000000000000000 ) ) ;
#194 = CYLINDRICAL_SURFACE ( 'NONE', #245, 2.649999999999999911 ) ;
#195 = EDGE_CURVE ( 'NONE', #38, #229, #94, .T. ) ;
#196 = VECTOR ( 'NONE', #317, 1000.000000000000000 ) ;
#197 = SURFACE_SIDE_STYLE ('',( #138 ) ) ;
#198 = EDGE_LOOP ( 'NONE', ( #262, #322, #43, #98 ) ) ;
#199 = CARTESIAN_POINT ( 'NONE',  ( 3.000000000000005329, 3.245314017740485962E-16, 2.649999999999999911 ) ) ;
#200 = DIRECTION ( 'NONE',  ( -1.000000000000000000, 0.0000000000000000000, 0.0000000000000000000 ) ) ;
#201 = EDGE_LOOP ( 'NONE', ( #310, #209, #181, #237 ) ) ;
#202 = CIRCLE ( 'NONE', #164, 4.900000000000003020 ) ;
#203 = CARTESIAN_POINT ( 'NONE',  ( 3.200000000000000178, 3.490243377569952610E-16, 2.849999999999996536 ) ) ;
#204 = DIRECTION ( 'NONE',  ( 0.0000000000000000000, 0.0000000000000000000, -1.000000000000000000 ) ) ;
#205 = DIRECTION ( 'NONE',  ( -1.000000000000000000, -0.0000000000000000000, -0.0000000000000000000 ) ) ;
#206 = DIRECTION ( 'NONE',  ( -1.000000000000000000, -0.0000000000000000000, -0.0000000000000000000 ) ) ;
#207 = ADVANCED_FACE ( 'NONE', ( #350 ), #89, .T. ) ;
#208 = LINE ( 'NONE', #97, #273 ) ;
#209 = ORIENTED_EDGE ( 'NONE', *, *, #318, .T. ) ;
#210 = AXIS2_PLACEMENT_3D ( 'NONE', #306, #221, #169 ) ;
#211 = CARTESIAN_POINT ( 'NONE',  ( 0.0000000000000000000, 0.0000000000000000000, 0.0000000000000000000 ) ) ;
#212 = ORIENTED_EDGE ( 'NONE', *, *, #195, .T. ) ;
#213 = VERTEX_POINT ( 'NONE', #180 ) ;
#214 = VECTOR ( 'NONE', #9, 1000.000000000000000 ) ;
#215 = ADVANCED_FACE ( 'NONE', ( #66 ), #49, .T. ) ;
#216 =( LENGTH_UNIT ( ) NAMED_UNIT ( * ) SI_UNIT ( .MILLI., .METRE. ) );
#217 = AXIS2_PLACEMENT_3D ( 'NONE', #185, #352, #37 ) ;
#218 = CARTESIAN_POINT ( 'NONE',  ( 0.0000000000000000000, 0.0000000000000000000, 0.0000000000000000000 ) ) ;
#219 = PRESENTATION_STYLE_ASSIGNMENT (( #338 ) ) ;
#220 = LINE ( 'NONE', #53, #348 ) ;
#221 = DIRECTION ( 'NONE',  ( 1.000000000000000000, 0.0000000000000000000, 0.0000000000000000000 ) ) ;
#222 = CIRCLE ( 'NONE', #210, 2.649999999999999911 ) ;
#223 = CARTESIAN_POINT ( 'NONE',  ( 3.200000000000000178, 0.0000000000000000000, 5.000000000000000000 ) ) ;
#224 = FILL_AREA_STYLE_COLOUR ( '', #121 ) ;
#225 = EDGE_CURVE ( 'NONE', #124, #320, #208, .T. ) ;
#226 = ORIENTED_EDGE ( 'NONE', *, *, #190, .F. ) ;
#227 = LINE ( 'NONE', #223, #356 ) ;
#228 = FACE_BOUND ( 'NONE', #105, .T. ) ;
#229 = VERTEX_POINT ( 'NONE', #72 ) ;
#230 = CONICAL_SURFACE ( 'NONE', #62, 2.649999999999999911, 0.7853981633974526089 ) ;
#231 = DIRECTION ( 'NONE',  ( 1.000000000000000000, 0.0000000000000000000, 0.0000000000000000000 ) ) ;
#232 = EDGE_LOOP ( 'NONE', ( #291, #29, #15, #276 ) ) ;
#233 = CIRCLE ( 'NONE', #183, 2.849999999999996536 ) ;
#234 = EDGE_CURVE ( 'NONE', #167, #314, #187, .T. ) ;
#235 = CARTESIAN_POINT ( 'NONE',  ( 3.200000000000000178, 0.0000000000000000000, 0.0000000000000000000 ) ) ;
#236 = VERTEX_POINT ( 'NONE', #315 ) ;
#237 = ORIENTED_EDGE ( 'NONE', *, *, #60, .F. ) ;
#238 = DIRECTION ( 'NONE',  ( 0.0000000000000000000, 0.0000000000000000000, -1.000000000000000000 ) ) ;
#239 = EDGE_CURVE ( 'NONE', #320, #213, #242, .T. ) ;
#240 = ORIENTED_EDGE ( 'NONE', *, *, #131, .F. ) ;
#241 = ORIENTED_EDGE ( 'NONE', *, *, #234, .T. ) ;
#242 = CIRCLE ( 'NONE', #75, 5.000000000000000000 ) ;
#243 = UNCERTAINTY_MEASURE_WITH_UNIT (LENGTH_MEASURE( 1.000000000000000082E-05 ), #23, 'distance_accuracy_value', 'NONE');
#244 = FACE_OUTER_BOUND ( 'NONE', #293, .T. ) ;
#245 = AXIS2_PLACEMENT_3D ( 'NONE', #10, #118, #55 ) ;
#246 = EDGE_CURVE ( 'NONE', #120, #236, #16, .T. ) ;
#247 = DIRECTION ( 'NONE',  ( 0.7071067811865505703, 0.0000000000000000000, -0.7071067811865444641 ) ) ;
#248 = DIRECTION ( 'NONE',  ( 0.7071067811865444641, 8.659560562354969836E-17, 0.7071067811865505703 ) ) ;
#249 = CARTESIAN_POINT ( 'NONE',  ( 0.0000000000000000000, 0.0000000000000000000, 0.0000000000000000000 ) ) ;
#250 = EDGE_LOOP ( 'NONE', ( #182, #150 ) ) ;
#251 =( NAMED_UNIT ( * ) SI_UNIT ( $, .STERADIAN. ) SOLID_ANGLE_UNIT ( ) );
#252 = ORIENTED_EDGE ( 'NONE', *, *, #304, .T. ) ;
#253 = DIRECTION ( 'NONE',  ( 0.0000000000000000000, 0.0000000000000000000, -1.000000000000000000 ) ) ;
#254 = CARTESIAN_POINT ( 'NONE',  ( 3.000000000000005329, 0.0000000000000000000, 2.649999999999999911 ) ) ;
#255 = EDGE_LOOP ( 'NONE', ( #241, #252 ) ) ;
#256 = DIRECTION ( 'NONE',  ( 0.0000000000000000000, 0.0000000000000000000, -1.000000000000000000 ) ) ;
#257 = FACE_OUTER_BOUND ( 'NONE', #178, .T. ) ;
#258 = CARTESIAN_POINT ( 'NONE',  ( 0.1000000000000002554, 0.0000000000000000000, 0.0000000000000000000 ) ) ;
#259 = EDGE_CURVE ( 'NONE', #4, #124, #272, .T. ) ;
#260 = AXIS2_PLACEMENT_3D ( 'NONE', #119, #6, #39 ) ;
#261 = FACE_OUTER_BOUND ( 'NONE', #232, .T. ) ;
#262 = ORIENTED_EDGE ( 'NONE', *, *, #225, .F. ) ;
#263 = DIRECTION ( 'NONE',  ( 1.000000000000000000, -0.0000000000000000000, -0.0000000000000000000 ) ) ;
#264 = ORIENTED_EDGE ( 'NONE', *, *, #195, .F. ) ;
#265 = CIRCLE ( 'NONE', #47, 2.649999999999999911 ) ;
#266 = ADVANCED_FACE ( 'NONE', ( #40 ), #230, .F. ) ;
#267 = DIRECTION ( 'NONE',  ( 1.000000000000000000, -0.0000000000000000000, -0.0000000000000000000 ) ) ;
#268 = DIRECTION ( 'NONE',  ( -1.000000000000000000, -0.0000000000000000000, -0.0000000000000000000 ) ) ;
#269 = VECTOR ( 'NONE', #308, 1000.000000000000000 ) ;
#270 =( NAMED_UNIT ( * ) PLANE_ANGLE_UNIT ( ) SI_UNIT ( $, .RADIAN. ) );
#271 = APPLICATION_CONTEXT ( 'automotive_design' ) ;
#272 = CIRCLE ( 'NONE', #41, 5.000000000000000000 ) ;
#273 = VECTOR ( 'NONE', #295, 1000.000000000000000 ) ;
#274 = VERTEX_POINT ( 'NONE', #203 ) ;
#275 = LINE ( 'NONE', #199, #160 ) ;
#276 = ORIENTED_EDGE ( 'NONE', *, *, #113, .F. ) ;
#277 = ADVANCED_FACE ( 'NONE', ( #14 ), #289, .T. ) ;
#278 = DIRECTION ( 'NONE',  ( 0.0000000000000000000, 0.0000000000000000000, -1.000000000000000000 ) ) ;
#279 = STYLED_ITEM ( 'NONE', ( #329 ), #146 ) ;
#280 = CARTESIAN_POINT ( 'NONE',  ( 0.1000000000000002554, 0.0000000000000000000, 0.0000000000000000000 ) ) ;
#281 = CARTESIAN_POINT ( 'NONE',  ( 3.200000000000000178, 0.0000000000000000000, 4.900000000000003020 ) ) ;
#282 = STYLED_ITEM ( 'NONE', ( #219 ), #57 ) ;
#283 = ORIENTED_EDGE ( 'NONE', *, *, #48, .T. ) ;
#284 = DIRECTION ( 'NONE',  ( 1.000000000000000000, 0.0000000000000000000, 0.0000000000000000000 ) ) ;
#285 = ORIENTED_EDGE ( 'NONE', *, *, #239, .T. ) ;
#286 = DIRECTION ( 'NONE',  ( 1.000000000000000000, 0.0000000000000000000, 0.0000000000000000000 ) ) ;
#287 = DIRECTION ( 'NONE',  ( -1.000000000000000000, 0.0000000000000000000, 0.0000000000000000000 ) ) ;
#288 = ORIENTED_EDGE ( 'NONE', *, *, #246, .F. ) ;
#289 = CONICAL_SURFACE ( 'NONE', #107, 5.000000000000000000, 0.7853981633974439491 ) ;
#290 = DIRECTION ( 'NONE',  ( 0.0000000000000000000, 0.0000000000000000000, -1.000000000000000000 ) ) ;
#291 = ORIENTED_EDGE ( 'NONE', *, *, #318, .F. ) ;
#292 = CARTESIAN_POINT ( 'NONE',  ( 3.200000000000000178, 3.245314017740485962E-16, -2.649999999999999911 ) ) ;
#293 = EDGE_LOOP ( 'NONE', ( #58, #50 ) ) ;
#294 = ADVANCED_FACE ( 'NONE', ( #349 ), #22, .F. ) ;
#295 = DIRECTION ( 'NONE',  ( -1.000000000000000000, -0.0000000000000000000, -0.0000000000000000000 ) ) ;
#296 = CARTESIAN_POINT ( 'NONE',  ( 0.1000000000000002554, 0.0000000000000000000, 0.0000000000000000000 ) ) ;
#297 = APPLICATION_CONTEXT ( 'automotive_design' ) ;
#298 = EDGE_LOOP ( 'NONE', ( #240, #44, #18, #147 ) ) ;
#299 = AXIS2_PLACEMENT_3D ( 'NONE', #85, #200, #312 ) ;
#300 = DIRECTION ( 'NONE',  ( 0.0000000000000000000, 0.0000000000000000000, 1.000000000000000000 ) ) ;
#301 = EDGE_CURVE ( 'NONE', #38, #71, #117, .T. ) ;
#302 = AXIS2_PLACEMENT_3D ( 'NONE', #21, #359, #54 ) ;
#303 = CIRCLE ( 'NONE', #161, 4.900000000000000355 ) ;
#304 = EDGE_CURVE ( 'NONE', #314, #167, #202, .T. ) ;
#305 = DIRECTION ( 'NONE',  ( 1.000000000000000000, 0.0000000000000000000, 0.0000000000000000000 ) ) ;
#306 = CARTESIAN_POINT ( 'NONE',  ( 0.0000000000000000000, 0.0000000000000000000, 0.0000000000000000000 ) ) ;
#307 = CIRCLE ( 'NONE', #260, 2.849999999999996536 ) ;
#308 = DIRECTION ( 'NONE',  ( -0.7071067811865536790, 0.0000000000000000000, 0.7071067811865414665 ) ) ;
#309 = EDGE_CURVE ( 'NONE', #120, #38, #265, .T. ) ;
#310 = ORIENTED_EDGE ( 'NONE', *, *, #304, .F. ) ;
#311 = PRODUCT_CONTEXT ( 'NONE', #271, 'mechanical' ) ;
#312 = DIRECTION ( 'NONE',  ( 0.0000000000000000000, 0.0000000000000000000, 1.000000000000000000 ) ) ;
#313 = AXIS2_PLACEMENT_3D ( 'NONE', #177, #284, #68 ) ;
#314 = VERTEX_POINT ( 'NONE', #122 ) ;
#315 = CARTESIAN_POINT ( 'NONE',  ( 0.0000000000000000000, 0.0000000000000000000, 2.649999999999999911 ) ) ;
#316 =( GEOMETRIC_REPRESENTATION_CONTEXT ( 3 ) GLOBAL_UNCERTAINTY_ASSIGNED_CONTEXT ( ( #243 ) ) GLOBAL_UNIT_ASSIGNED_CONTEXT ( ( #23, #112, #251 ) ) REPRESENTATION_CONTEXT ( 'NONE', 'WORKASPACE' ) );
#317 = DIRECTION ( 'NONE',  ( -1.000000000000000000, -0.0000000000000000000, -0.0000000000000000000 ) ) ;
#318 = EDGE_CURVE ( 'NONE', #314, #124, #11, .T. ) ;
#319 = EDGE_CURVE ( 'NONE', #71, #274, #307, .T. ) ;
#320 = VERTEX_POINT ( 'NONE', #151 ) ;
#321 = PRODUCT_DEFINITION_SHAPE ( 'NONE', 'NONE',  #163 ) ;
#322 = ORIENTED_EDGE ( 'NONE', *, *, #113, .T. ) ;
#323 = DIRECTION ( 'NONE',  ( 0.0000000000000000000, 0.0000000000000000000, -1.000000000000000000 ) ) ;
#324 = ORIENTED_EDGE ( 'NONE', *, *, #301, .T. ) ;
#325 = VECTOR ( 'NONE', #30, 1000.000000000000000 ) ;
#326 = EDGE_CURVE ( 'NONE', #4, #213, #227, .T. ) ;
#327 = AXIS2_PLACEMENT_3D ( 'NONE', #145, #171, #335 ) ;
#328 = CYLINDRICAL_SURFACE ( 'NONE', #92, 2.649999999999999911 ) ;
#329 = PRESENTATION_STYLE_ASSIGNMENT (( #78 ) ) ;
#330 = CARTESIAN_POINT ( 'NONE',  ( 3.000000000000005329, 3.245314017740485962E-16, -2.649999999999999911 ) ) ;
#331 = UNCERTAINTY_MEASURE_WITH_UNIT (LENGTH_MEASURE( 1.000000000000000082E-05 ), #56, 'distance_accuracy_value', 'NONE');
#332 = AXIS2_PLACEMENT_3D ( 'NONE', #193, #305, #278 ) ;
#333 = DIRECTION ( 'NONE',  ( 0.0000000000000000000, 0.0000000000000000000, 1.000000000000000000 ) ) ;
#334 = DIRECTION ( 'NONE',  ( 1.000000000000000000, 0.0000000000000000000, 0.0000000000000000000 ) ) ;
#335 = DIRECTION ( 'NONE',  ( 0.0000000000000000000, 0.0000000000000000000, -1.000000000000000000 ) ) ;
#336 = CARTESIAN_POINT ( 'NONE',  ( 0.1000000000000002554, 6.123233995736766282E-16, 5.000000000000000000 ) ) ;
#337 = PRODUCT_DEFINITION_FORMATION_WITH_SPECIFIED_SOURCE ( 'ANY', '', #99, .NOT_KNOWN. ) ;
#338 = SURFACE_STYLE_USAGE ( .BOTH. , #87 ) ;
#339 = ADVANCED_FACE ( 'NONE', ( #343, #96 ), #344, .T. ) ;
#340 = CLOSED_SHELL ( 'NONE', ( #294, #166, #215, #104, #207, #339, #108, #189, #24, #277, #353, #266 ) ) ;
#341 = DIRECTION ( 'NONE',  ( -1.000000000000000000, 0.0000000000000000000, 0.0000000000000000000 ) ) ;
#342 = FACE_OUTER_BOUND ( 'NONE', #201, .T. ) ;
#343 = FACE_BOUND ( 'NONE', #250, .T. ) ;
#344 = PLANE ( 'NONE',  #152 ) ;
#345 = PLANE ( 'NONE',  #332 ) ;
#346 = ORIENTED_EDGE ( 'NONE', *, *, #361, .F. ) ;
#347 = CARTESIAN_POINT ( 'NONE',  ( 0.1000000000000002554, 0.0000000000000000000, 0.0000000000000000000 ) ) ;
#348 = VECTOR ( 'NONE', #247, 1000.000000000000000 ) ;
#349 = FACE_OUTER_BOUND ( 'NONE', #35, .T. ) ;
#350 = FACE_OUTER_BOUND ( 'NONE', #82, .T. ) ;
#351 = ORIENTED_EDGE ( 'NONE', *, *, #301, .F. ) ;
#352 = DIRECTION ( 'NONE',  ( -1.000000000000000000, -0.0000000000000000000, -0.0000000000000000000 ) ) ;
#353 = ADVANCED_FACE ( 'NONE', ( #261 ), #2, .T. ) ;
#354 = AXIS2_PLACEMENT_3D ( 'NONE', #211, #205, #290 ) ;
#355 = VERTEX_POINT ( 'NONE', #136 ) ;
#356 = VECTOR ( 'NONE', #65, 1000.000000000000000 ) ;
#357 = FACE_OUTER_BOUND ( 'NONE', #74, .T. ) ;
#358 = EDGE_CURVE ( 'NONE', #236, #229, #111, .T. ) ;
#359 = DIRECTION ( 'NONE',  ( 0.0000000000000000000, 0.0000000000000000000, 1.000000000000000000 ) ) ;
#360 = DIRECTION ( 'NONE',  ( 0.0000000000000000000, 0.0000000000000000000, -1.000000000000000000 ) ) ;
#361 = EDGE_CURVE ( 'NONE', #120, #274, #275, .T. ) ;
#362 = LINE ( 'NONE', #336, #19 ) ;
#363 = DIRECTION ( 'NONE',  ( -1.000000000000000000, -0.0000000000000000000, -0.0000000000000000000 ) ) ;
#364 = ORIENTED_EDGE ( 'NONE', *, *, #358, .F. ) ;
ENDSEC;
END-ISO-10303-21;
