ISO-10303-21;
HEADER;
FILE_DESCRIPTION (( 'STEP AP214' ),
    '1' );
FILE_NAME ('A221 Òðàïåöåèäàëüíûé âèíò 8õ1040 ìì, 4-õ çàõîäíûé, øàã 2 ìì.STEP',
    '2019-12-12T12:30:45',
    ( 'Windows User' ),
    ( '' ),
    'SwSTEP 2.0',
    'SolidWorks 2019',
    '' );
FILE_SCHEMA (( 'AUTOMOTIVE_DESIGN' ));
ENDSEC;

DATA;
#1 = CARTESIAN_POINT ( 'NONE',  ( 1040.000000000000000, 0.0000000000000000000, 0.0000000000000000000 ) ) ;
#2 = DIRECTION ( 'NONE',  ( 1.000000000000000000, 0.0000000000000000000, 0.0000000000000000000 ) ) ;
#3 = AXIS2_PLACEMENT_3D ( 'NONE', #26, #70, #120 ) ;
#4 =( NAMED_UNIT ( * ) SI_UNIT ( $, .STERADIAN. ) SOLID_ANGLE_UNIT ( ) );
#5 = ORIENTED_EDGE ( 'NONE', *, *, #149, .F. ) ;
#6 = CARTESIAN_POINT ( 'NONE',  ( 0.0000000000000000000, 0.0000000000000000000, 0.0000000000000000000 ) ) ;
#7 = PRESENTATION_STYLE_ASSIGNMENT (( #92 ) ) ;
#8 = EDGE_LOOP ( 'NONE', ( #101, #93 ) ) ;
#9 = PLANE ( 'NONE',  #68 ) ;
#10 = CIRCLE ( 'NONE', #151, 4.000000000000000000 ) ;
#11 = FILL_AREA_STYLE_COLOUR ( '', #35 ) ;
#12 =( LENGTH_UNIT ( ) NAMED_UNIT ( * ) SI_UNIT ( .MILLI., .METRE. ) );
#13 = DIRECTION ( 'NONE',  ( -1.000000000000000000, -0.0000000000000000000, -0.0000000000000000000 ) ) ;
#14 = SURFACE_STYLE_USAGE ( .BOTH. , #91 ) ;
#15 = AXIS2_PLACEMENT_3D ( 'NONE', #6, #38, #114 ) ;
#16 =( NAMED_UNIT ( * ) PLANE_ANGLE_UNIT ( ) SI_UNIT ( $, .RADIAN. ) );
#17 = DIRECTION ( 'NONE',  ( -1.000000000000000000, -0.0000000000000000000, -0.0000000000000000000 ) ) ;
#18 = ORIENTED_EDGE ( 'NONE', *, *, #19, .F. ) ;
#19 = EDGE_CURVE ( 'NONE', #162, #62, #28, .T. ) ;
#20 = AXIS2_PLACEMENT_3D ( 'NONE', #163, #17, #54 ) ;
#21 = EDGE_LOOP ( 'NONE', ( #5, #139 ) ) ;
#22 =( NAMED_UNIT ( * ) PLANE_ANGLE_UNIT ( ) SI_UNIT ( $, .RADIAN. ) );
#23 = FILL_AREA_STYLE ('',( #132 ) ) ;
#24 = MANIFOLD_SOLID_BREP ( 'Áîáûøêà-Âûòÿíóòü1', #116 ) ;
#25 = APPLICATION_CONTEXT ( 'automotive_design' ) ;
#26 = CARTESIAN_POINT ( 'NONE',  ( 1040.000000000000000, 0.0000000000000000000, 0.0000000000000000000 ) ) ;
#27 = MECHANICAL_DESIGN_GEOMETRIC_PRESENTATION_REPRESENTATION (  '', ( #30 ), #118 ) ;
#28 = CIRCLE ( 'NONE', #56, 4.000000000000000000 ) ;
#29 = DIRECTION ( 'NONE',  ( 0.0000000000000000000, 0.0000000000000000000, -1.000000000000000000 ) ) ;
#30 = STYLED_ITEM ( 'NONE', ( #7 ), #95 ) ;
#31 = ADVANCED_BREP_SHAPE_REPRESENTATION ( 'A221 T¨ðÿõ¡õøôðû¹ývù òøýª 8¿1040 üü, 4-¿ ÷ð¿þôývù, °ðó 2 üü', ( #24, #15 ), #46 ) ;
#32 = CARTESIAN_POINT ( 'NONE',  ( 0.0000000000000000000, 0.0000000000000000000, 0.0000000000000000000 ) ) ;
#33 = ADVANCED_FACE ( 'NONE', ( #42 ), #9, .F. ) ;
#34 =( NAMED_UNIT ( * ) PLANE_ANGLE_UNIT ( ) SI_UNIT ( $, .RADIAN. ) );
#35 = COLOUR_RGB ( '',0.7960784313725489669, 0.8235294117647058432, 0.9372549019607843146 ) ;
#36 = CARTESIAN_POINT ( 'NONE',  ( 1040.000000000000000, 4.898587196589412829E-16, -4.000000000000000000 ) ) ;
#37 = CIRCLE ( 'NONE', #161, 4.000000000000000000 ) ;
#38 = DIRECTION ( 'NONE',  ( 0.0000000000000000000, 0.0000000000000000000, 1.000000000000000000 ) ) ;
#39 = SURFACE_SIDE_STYLE ('',( #152 ) ) ;
#40 = VERTEX_POINT ( 'NONE', #96 ) ;
#41 = COLOUR_RGB ( '',0.7960784313725489669, 0.8235294117647058432, 0.9372549019607843146 ) ;
#42 = FACE_OUTER_BOUND ( 'NONE', #21, .T. ) ;
#43 = DIRECTION ( 'NONE',  ( 1.000000000000000000, 0.0000000000000000000, 0.0000000000000000000 ) ) ;
#44 = PRODUCT_DEFINITION_CONTEXT ( 'detailed design', #25, 'design' ) ;
#45 = CARTESIAN_POINT ( 'NONE',  ( 1040.000000000000000, 0.0000000000000000000, 0.0000000000000000000 ) ) ;
#46 =( GEOMETRIC_REPRESENTATION_CONTEXT ( 3 ) GLOBAL_UNCERTAINTY_ASSIGNED_CONTEXT ( ( #72 ) ) GLOBAL_UNIT_ASSIGNED_CONTEXT ( ( #47, #87, #89 ) ) REPRESENTATION_CONTEXT ( 'NONE', 'WORKASPACE' ) );
#47 =( LENGTH_UNIT ( ) NAMED_UNIT ( * ) SI_UNIT ( .MILLI., .METRE. ) );
#48 = DIRECTION ( 'NONE',  ( 0.0000000000000000000, 0.0000000000000000000, -1.000000000000000000 ) ) ;
#49 = PRODUCT ( 'A221 Òðàïåöåèäàëüíûé âèíò 8õ1040 ìì, 4-õ çàõîäíûé, øàã 2 ìì', 'A221 Òðàïåöåèäàëüíûé âèíò 8õ1040 ìì, 4-õ çàõîäíûé, øàã 2 ìì', '', ( #111 ) ) ;
#50 = COLOUR_RGB ( '',0.7960784313725489669, 0.8235294117647058432, 0.9372549019607843146 ) ;
#51 = SURFACE_STYLE_FILL_AREA ( #53 ) ;
#52 = EDGE_LOOP ( 'NONE', ( #115, #130, #67, #84 ) ) ;
#53 = FILL_AREA_STYLE ('',( #150 ) ) ;
#54 = DIRECTION ( 'NONE',  ( 0.0000000000000000000, 0.0000000000000000000, 1.000000000000000000 ) ) ;
#55 = PRODUCT_DEFINITION ( 'UNKNOWN', '', #86, #44 ) ;
#56 = AXIS2_PLACEMENT_3D ( 'NONE', #57, #97, #71 ) ;
#57 = CARTESIAN_POINT ( 'NONE',  ( 1040.000000000000000, 0.0000000000000000000, 0.0000000000000000000 ) ) ;
#58 = APPLICATION_CONTEXT ( 'automotive_design' ) ;
#59 = FILL_AREA_STYLE ('',( #11 ) ) ;
#60 = ADVANCED_FACE ( 'NONE', ( #153 ), #81, .T. ) ;
#61 = AXIS2_PLACEMENT_3D ( 'NONE', #45, #2, #48 ) ;
#62 = VERTEX_POINT ( 'NONE', #138 ) ;
#63 = CARTESIAN_POINT ( 'NONE',  ( 1040.000000000000000, 0.0000000000000000000, 4.000000000000000000 ) ) ;
#64 = CARTESIAN_POINT ( 'NONE',  ( 0.0000000000000000000, 0.0000000000000000000, 0.0000000000000000000 ) ) ;
#65 = DIRECTION ( 'NONE',  ( -1.000000000000000000, -0.0000000000000000000, -0.0000000000000000000 ) ) ;
#66 = PRESENTATION_STYLE_ASSIGNMENT (( #14 ) ) ;
#67 = ORIENTED_EDGE ( 'NONE', *, *, #131, .T. ) ;
#68 = AXIS2_PLACEMENT_3D ( 'NONE', #85, #69, #29 ) ;
#69 = DIRECTION ( 'NONE',  ( 1.000000000000000000, 0.0000000000000000000, 0.0000000000000000000 ) ) ;
#70 = DIRECTION ( 'NONE',  ( -1.000000000000000000, -0.0000000000000000000, -0.0000000000000000000 ) ) ;
#71 = DIRECTION ( 'NONE',  ( 0.0000000000000000000, 0.0000000000000000000, -1.000000000000000000 ) ) ;
#72 = UNCERTAINTY_MEASURE_WITH_UNIT (LENGTH_MEASURE( 1.000000000000000082E-05 ), #47, 'distance_accuracy_value', 'NONE');
#73 = PRESENTATION_STYLE_ASSIGNMENT (( #140 ) ) ;
#74 = STYLED_ITEM ( 'NONE', ( #66 ), #31 ) ;
#75 =( LENGTH_UNIT ( ) NAMED_UNIT ( * ) SI_UNIT ( .MILLI., .METRE. ) );
#76 = LINE ( 'NONE', #63, #100 ) ;
#77 =( NAMED_UNIT ( * ) SI_UNIT ( $, .STERADIAN. ) SOLID_ANGLE_UNIT ( ) );
#78 = STYLED_ITEM ( 'NONE', ( #134 ), #60 ) ;
#79 = MECHANICAL_DESIGN_GEOMETRIC_PRESENTATION_REPRESENTATION (  '', ( #137 ), #122 ) ;
#80 = LINE ( 'NONE', #36, #124 ) ;
#81 = CYLINDRICAL_SURFACE ( 'NONE', #20, 4.000000000000000000 ) ;
#82 = FACE_OUTER_BOUND ( 'NONE', #83, .T. ) ;
#83 = EDGE_LOOP ( 'NONE', ( #127, #18, #113, #160 ) ) ;
#84 = ORIENTED_EDGE ( 'NONE', *, *, #165, .F. ) ;
#85 = CARTESIAN_POINT ( 'NONE',  ( 0.0000000000000000000, 0.0000000000000000000, 0.0000000000000000000 ) ) ;
#86 = PRODUCT_DEFINITION_FORMATION_WITH_SPECIFIED_SOURCE ( 'ANY', '', #49, .NOT_KNOWN. ) ;
#87 =( NAMED_UNIT ( * ) PLANE_ANGLE_UNIT ( ) SI_UNIT ( $, .RADIAN. ) );
#88 =( GEOMETRIC_REPRESENTATION_CONTEXT ( 3 ) GLOBAL_UNCERTAINTY_ASSIGNED_CONTEXT ( ( #107 ) ) GLOBAL_UNIT_ASSIGNED_CONTEXT ( ( #159, #16, #4 ) ) REPRESENTATION_CONTEXT ( 'NONE', 'WORKASPACE' ) );
#89 =( NAMED_UNIT ( * ) SI_UNIT ( $, .STERADIAN. ) SOLID_ANGLE_UNIT ( ) );
#90 = DIRECTION ( 'NONE',  ( 0.0000000000000000000, 0.0000000000000000000, -1.000000000000000000 ) ) ;
#91 = SURFACE_SIDE_STYLE ('',( #51 ) ) ;
#92 = SURFACE_STYLE_USAGE ( .BOTH. , #39 ) ;
#93 = ORIENTED_EDGE ( 'NONE', *, *, #154, .T. ) ;
#94 = PRESENTATION_LAYER_ASSIGNMENT (  '', '', ( #74 ) ) ;
#95 = ADVANCED_FACE ( 'NONE', ( #82 ), #125, .T. ) ;
#96 = CARTESIAN_POINT ( 'NONE',  ( 0.0000000000000000000, 0.0000000000000000000, 4.000000000000000000 ) ) ;
#97 = DIRECTION ( 'NONE',  ( 1.000000000000000000, 0.0000000000000000000, 0.0000000000000000000 ) ) ;
#98 = CARTESIAN_POINT ( 'NONE',  ( 0.0000000000000000000, 4.898587196589412829E-16, -4.000000000000000000 ) ) ;
#99 = UNCERTAINTY_MEASURE_WITH_UNIT (LENGTH_MEASURE( 1.000000000000000082E-05 ), #12, 'distance_accuracy_value', 'NONE');
#100 = VECTOR ( 'NONE', #65, 1000.000000000000000 ) ;
#101 = ORIENTED_EDGE ( 'NONE', *, *, #19, .T. ) ;
#102 = FILL_AREA_STYLE_COLOUR ( '', #109 ) ;
#103 =( NAMED_UNIT ( * ) SI_UNIT ( $, .STERADIAN. ) SOLID_ANGLE_UNIT ( ) );
#104 = SURFACE_STYLE_FILL_AREA ( #23 ) ;
#105 = PLANE ( 'NONE',  #61 ) ;
#106 = SURFACE_STYLE_FILL_AREA ( #59 ) ;
#107 = UNCERTAINTY_MEASURE_WITH_UNIT (LENGTH_MEASURE( 1.000000000000000082E-05 ), #159, 'distance_accuracy_value', 'NONE');
#108 = DIRECTION ( 'NONE',  ( 0.0000000000000000000, 0.0000000000000000000, -1.000000000000000000 ) ) ;
#109 = COLOUR_RGB ( '',0.7960784313725489669, 0.8235294117647058432, 0.9372549019607843146 ) ;
#110 = DIRECTION ( 'NONE',  ( 1.000000000000000000, 0.0000000000000000000, 0.0000000000000000000 ) ) ;
#111 = PRODUCT_CONTEXT ( 'NONE', #58, 'mechanical' ) ;
#112 = MECHANICAL_DESIGN_GEOMETRIC_PRESENTATION_REPRESENTATION (  '', ( #74 ), #88 ) ;
#113 = ORIENTED_EDGE ( 'NONE', *, *, #165, .T. ) ;
#114 = DIRECTION ( 'NONE',  ( 1.000000000000000000, 0.0000000000000000000, 0.0000000000000000000 ) ) ;
#115 = ORIENTED_EDGE ( 'NONE', *, *, #154, .F. ) ;
#116 = CLOSED_SHELL ( 'NONE', ( #60, #95, #117, #33 ) ) ;
#117 = ADVANCED_FACE ( 'NONE', ( #166 ), #105, .T. ) ;
#118 =( GEOMETRIC_REPRESENTATION_CONTEXT ( 3 ) GLOBAL_UNCERTAINTY_ASSIGNED_CONTEXT ( ( #156 ) ) GLOBAL_UNIT_ASSIGNED_CONTEXT ( ( #170, #22, #119 ) ) REPRESENTATION_CONTEXT ( 'NONE', 'WORKASPACE' ) );
#119 =( NAMED_UNIT ( * ) SI_UNIT ( $, .STERADIAN. ) SOLID_ANGLE_UNIT ( ) );
#120 = DIRECTION ( 'NONE',  ( 0.0000000000000000000, 0.0000000000000000000, 1.000000000000000000 ) ) ;
#121 = UNCERTAINTY_MEASURE_WITH_UNIT (LENGTH_MEASURE( 1.000000000000000082E-05 ), #75, 'distance_accuracy_value', 'NONE');
#122 =( GEOMETRIC_REPRESENTATION_CONTEXT ( 3 ) GLOBAL_UNCERTAINTY_ASSIGNED_CONTEXT ( ( #99 ) ) GLOBAL_UNIT_ASSIGNED_CONTEXT ( ( #12, #168, #103 ) ) REPRESENTATION_CONTEXT ( 'NONE', 'WORKASPACE' ) );
#123 = DIRECTION ( 'NONE',  ( 0.0000000000000000000, 0.0000000000000000000, -1.000000000000000000 ) ) ;
#124 = VECTOR ( 'NONE', #13, 1000.000000000000000 ) ;
#125 = CYLINDRICAL_SURFACE ( 'NONE', #3, 4.000000000000000000 ) ;
#126 = FILL_AREA_STYLE ('',( #102 ) ) ;
#127 = ORIENTED_EDGE ( 'NONE', *, *, #143, .F. ) ;
#128 = PRODUCT_RELATED_PRODUCT_CATEGORY ( 'part', '', ( #49 ) ) ;
#129 =( GEOMETRIC_REPRESENTATION_CONTEXT ( 3 ) GLOBAL_UNCERTAINTY_ASSIGNED_CONTEXT ( ( #121 ) ) GLOBAL_UNIT_ASSIGNED_CONTEXT ( ( #75, #34, #77 ) ) REPRESENTATION_CONTEXT ( 'NONE', 'WORKASPACE' ) );
#130 = ORIENTED_EDGE ( 'NONE', *, *, #143, .T. ) ;
#131 = EDGE_CURVE ( 'NONE', #147, #40, #145, .T. ) ;
#132 = FILL_AREA_STYLE_COLOUR ( '', #41 ) ;
#133 = SHAPE_DEFINITION_REPRESENTATION ( #148, #31 ) ;
#134 = PRESENTATION_STYLE_ASSIGNMENT (( #142 ) ) ;
#135 = PRESENTATION_LAYER_ASSIGNMENT (  '', '', ( #30 ) ) ;
#136 = CARTESIAN_POINT ( 'NONE',  ( 1040.000000000000000, 0.0000000000000000000, 4.000000000000000000 ) ) ;
#137 = STYLED_ITEM ( 'NONE', ( #73 ), #24 ) ;
#138 = CARTESIAN_POINT ( 'NONE',  ( 1040.000000000000000, 4.898587196589412829E-16, -4.000000000000000000 ) ) ;
#139 = ORIENTED_EDGE ( 'NONE', *, *, #131, .F. ) ;
#140 = SURFACE_STYLE_USAGE ( .BOTH. , #167 ) ;
#141 = PRESENTATION_LAYER_ASSIGNMENT (  '', '', ( #137 ) ) ;
#142 = SURFACE_STYLE_USAGE ( .BOTH. , #155 ) ;
#143 = EDGE_CURVE ( 'NONE', #62, #147, #80, .T. ) ;
#144 = DIRECTION ( 'NONE',  ( 1.000000000000000000, 0.0000000000000000000, 0.0000000000000000000 ) ) ;
#145 = CIRCLE ( 'NONE', #169, 4.000000000000000000 ) ;
#146 = APPLICATION_PROTOCOL_DEFINITION ( 'draft international standard', 'automotive_design', 1998, #58 ) ;
#147 = VERTEX_POINT ( 'NONE', #98 ) ;
#148 = PRODUCT_DEFINITION_SHAPE ( 'NONE', 'NONE',  #55 ) ;
#149 = EDGE_CURVE ( 'NONE', #40, #147, #10, .T. ) ;
#150 = FILL_AREA_STYLE_COLOUR ( '', #50 ) ;
#151 = AXIS2_PLACEMENT_3D ( 'NONE', #64, #144, #108 ) ;
#152 = SURFACE_STYLE_FILL_AREA ( #126 ) ;
#153 = FACE_OUTER_BOUND ( 'NONE', #52, .T. ) ;
#154 = EDGE_CURVE ( 'NONE', #62, #162, #37, .T. ) ;
#155 = SURFACE_SIDE_STYLE ('',( #106 ) ) ;
#156 = UNCERTAINTY_MEASURE_WITH_UNIT (LENGTH_MEASURE( 1.000000000000000082E-05 ), #170, 'distance_accuracy_value', 'NONE');
#157 = PRESENTATION_LAYER_ASSIGNMENT (  '', '', ( #78 ) ) ;
#158 = APPLICATION_PROTOCOL_DEFINITION ( 'draft international standard', 'automotive_design', 1998, #25 ) ;
#159 =( LENGTH_UNIT ( ) NAMED_UNIT ( * ) SI_UNIT ( .MILLI., .METRE. ) );
#160 = ORIENTED_EDGE ( 'NONE', *, *, #149, .T. ) ;
#161 = AXIS2_PLACEMENT_3D ( 'NONE', #1, #110, #123 ) ;
#162 = VERTEX_POINT ( 'NONE', #136 ) ;
#163 = CARTESIAN_POINT ( 'NONE',  ( 1040.000000000000000, 0.0000000000000000000, 0.0000000000000000000 ) ) ;
#164 = MECHANICAL_DESIGN_GEOMETRIC_PRESENTATION_REPRESENTATION (  '', ( #78 ), #129 ) ;
#165 = EDGE_CURVE ( 'NONE', #162, #40, #76, .T. ) ;
#166 = FACE_OUTER_BOUND ( 'NONE', #8, .T. ) ;
#167 = SURFACE_SIDE_STYLE ('',( #104 ) ) ;
#168 =( NAMED_UNIT ( * ) PLANE_ANGLE_UNIT ( ) SI_UNIT ( $, .RADIAN. ) );
#169 = AXIS2_PLACEMENT_3D ( 'NONE', #32, #43, #90 ) ;
#170 =( LENGTH_UNIT ( ) NAMED_UNIT ( * ) SI_UNIT ( .MILLI., .METRE. ) );
ENDSEC;
END-ISO-10303-21;
