ISO-10303-21;
HEADER;
FILE_DESCRIPTION (( 'STEP AP214' ),
    '1' );
FILE_NAME ('SH10S2X Àëþìèíèåâàÿ ïîëîñà ÀÄ31Ò 10õ2 (Áåç ïîêðûòèÿ).STEP',
    '2025-11-18T09:50:52',
    ( '' ),
    ( '' ),
    'SwSTEP 2.0',
    'SolidWorks 2025',
    '' );
FILE_SCHEMA (( 'AUTOMOTIVE_DESIGN' ));
ENDSEC;

DATA;
#1 = DIRECTION ( 'NONE',  ( 0.000000000000000000, 0.000000000000000000, 1.000000000000000000 ) ) ;
#2 = VECTOR ( 'NONE', #173, 1000.000000000000000 ) ;
#3 = ORIENTED_EDGE ( 'NONE', *, *, #18, .T. ) ;
#4 = CLOSED_SHELL ( 'NONE', ( #59, #8, #162, #32, #86, #114 ) ) ;
#5 = ORIENTED_EDGE ( 'NONE', *, *, #94, .F. ) ;
#6 = ORIENTED_EDGE ( 'NONE', *, *, #94, .T. ) ;
#7 = ORIENTED_EDGE ( 'NONE', *, *, #91, .T. ) ;
#8 = ADVANCED_FACE ( 'NONE', ( #124 ), #180, .F. ) ;
#9 = CARTESIAN_POINT ( 'NONE',  ( -4.999999999999997335, -1.000000000000000000, 500.0000000000000000 ) ) ;
#10 = DIRECTION ( 'NONE',  ( -1.000000000000000000, 0.000000000000000000, -0.000000000000000000 ) ) ;
#11 = LINE ( 'NONE', #87, #42 ) ;
#12 = CARTESIAN_POINT ( 'NONE',  ( -4.999999999999997335, -1.000000000000000000, -500.0000000000000000 ) ) ;
#13 = CARTESIAN_POINT ( 'NONE',  ( -4.999999999999997335, 0.9999999999999974465, -500.0000000000000000 ) ) ;
#14 = PRODUCT ( 'SH10S2X \X2\0410043b044e043c0438043d0438043504320430044f\X0\ \X2\043f043e043b043e04410430\X0\ \X2\04100414\X0\31\X2\0422\X0\ 10\X2\0445\X0\2 (\X2\041104350437\X0\ \X2\043f043e043a0440044b04420438044f\X0\)', 'SH10S2X \X2\0410043b044e043c0438043d0438043504320430044f\X0\ \X2\043f043e043b043e04410430\X0\ \X2\04100414\X0\31\X2\0422\X0\ 10\X2\0445\X0\2 (\X2\041104350437\X0\ \X2\043f043e043a0440044b04420438044f\X0\)', '', ( #152 ) ) ;
#15 = APPLICATION_CONTEXT ( 'automotive_design' ) ;
#16 = SHAPE_DEFINITION_REPRESENTATION ( #139, #176 ) ;
#17 = VECTOR ( 'NONE', #111, 1000.000000000000000 ) ;
#18 = EDGE_CURVE ( 'NONE', #157, #98, #140, .T. ) ;
#19 = DIRECTION ( 'NONE',  ( 0.000000000000000000, 0.000000000000000000, -1.000000000000000000 ) ) ;
#20 = DIRECTION ( 'NONE',  ( 1.000000000000000000, 0.000000000000000000, 0.000000000000000000 ) ) ;
#21 = AXIS2_PLACEMENT_3D ( 'NONE', #125, #163, #19 ) ;
#22 = PLANE ( 'NONE',  #142 ) ;
#23 = DIRECTION ( 'NONE',  ( 1.301042606982606060E-16, -1.000000000000000000, 0.000000000000000000 ) ) ;
#24 = CARTESIAN_POINT ( 'NONE',  ( 0.000000000000000000, 0.000000000000000000, 500.0000000000000000 ) ) ;
#25 = CARTESIAN_POINT ( 'NONE',  ( 0.000000000000000000, 0.000000000000000000, -500.0000000000000000 ) ) ;
#26 = FACE_OUTER_BOUND ( 'NONE', #183, .T. ) ;
#27 =( NAMED_UNIT ( * ) SI_UNIT ( $, .STERADIAN. ) SOLID_ANGLE_UNIT ( ) );
#28 = LINE ( 'NONE', #96, #80 ) ;
#29 =( LENGTH_UNIT ( ) NAMED_UNIT ( * ) SI_UNIT ( .MILLI., .METRE. ) );
#30 = PRESENTATION_LAYER_ASSIGNMENT (  '', '', ( #50 ) ) ;
#31 =( NAMED_UNIT ( * ) SI_UNIT ( $, .STERADIAN. ) SOLID_ANGLE_UNIT ( ) );
#32 = ADVANCED_FACE ( 'NONE', ( #166 ), #22, .F. ) ;
#33 = EDGE_LOOP ( 'NONE', ( #7, #68, #82, #51 ) ) ;
#34 = ORIENTED_EDGE ( 'NONE', *, *, #136, .T. ) ;
#35 = CARTESIAN_POINT ( 'NONE',  ( 4.999999999999997335, 0.9999999999999986677, -500.0000000000000000 ) ) ;
#36 = LINE ( 'NONE', #85, #147 ) ;
#37 = CARTESIAN_POINT ( 'NONE',  ( 4.999999999999997335, -0.9999999999999986677, -500.0000000000000000 ) ) ;
#38 = SURFACE_STYLE_FILL_AREA ( #72 ) ;
#39 = MANIFOLD_SOLID_BREP ( '\X2\0411043e0431044b0448043a0430\X0\-\X2\0412044b0442044f043d04430442044c\X0\1', #4 ) ;
#40 = AXIS2_PLACEMENT_3D ( 'NONE', #156, #23, #108 ) ;
#41 = DIRECTION ( 'NONE',  ( 0.000000000000000000, 0.000000000000000000, -1.000000000000000000 ) ) ;
#42 = VECTOR ( 'NONE', #55, 1000.000000000000000 ) ;
#43 = LINE ( 'NONE', #107, #170 ) ;
#44 = ORIENTED_EDGE ( 'NONE', *, *, #18, .F. ) ;
#45 = EDGE_CURVE ( 'NONE', #130, #99, #11, .T. ) ;
#46 = FACE_OUTER_BOUND ( 'NONE', #67, .T. ) ;
#47 = ORIENTED_EDGE ( 'NONE', *, *, #178, .T. ) ;
#48 = DIRECTION ( 'NONE',  ( -0.000000000000000000, -0.000000000000000000, -1.000000000000000000 ) ) ;
#49 = ORIENTED_EDGE ( 'NONE', *, *, #159, .F. ) ;
#50 = STYLED_ITEM ( 'NONE', ( #148 ), #39 ) ;
#51 = ORIENTED_EDGE ( 'NONE', *, *, #159, .T. ) ;
#52 = FACE_OUTER_BOUND ( 'NONE', #113, .T. ) ;
#53 = CARTESIAN_POINT ( 'NONE',  ( 4.999999999999997335, 0.9999999999999986677, 500.0000000000000000 ) ) ;
#54 = EDGE_CURVE ( 'NONE', #97, #130, #56, .T. ) ;
#55 = DIRECTION ( 'NONE',  ( -1.000000000000000000, -1.301042606982606060E-16, -0.000000000000000000 ) ) ;
#56 = LINE ( 'NONE', #177, #90 ) ;
#57 = FACE_OUTER_BOUND ( 'NONE', #184, .T. ) ;
#58 = COLOUR_RGB ( '',0.5921568627450980449, 0.6196078431372549211, 0.6509803921568627638 ) ;
#59 = ADVANCED_FACE ( 'NONE', ( #52 ), #134, .F. ) ;
#60 = CARTESIAN_POINT ( 'NONE',  ( -4.999999999999997335, -1.000000000000000000, -500.0000000000000000 ) ) ;
#61 = EDGE_CURVE ( 'NONE', #98, #143, #115, .T. ) ;
#62 = AXIS2_PLACEMENT_3D ( 'NONE', #73, #118, #1 ) ;
#63 = VERTEX_POINT ( 'NONE', #13 ) ;
#64 = DIRECTION ( 'NONE',  ( -0.000000000000000000, -0.000000000000000000, -1.000000000000000000 ) ) ;
#65 = EDGE_LOOP ( 'NONE', ( #131, #81, #138, #3 ) ) ;
#66 = DIRECTION ( 'NONE',  ( -0.000000000000000000, -1.000000000000000000, -0.000000000000000000 ) ) ;
#67 = EDGE_LOOP ( 'NONE', ( #34, #44, #5, #47 ) ) ;
#68 = ORIENTED_EDGE ( 'NONE', *, *, #178, .F. ) ;
#69 = VECTOR ( 'NONE', #145, 1000.000000000000000 ) ;
#70 = EDGE_CURVE ( 'NONE', #143, #100, #174, .T. ) ;
#71 = ORIENTED_EDGE ( 'NONE', *, *, #120, .T. ) ;
#72 = FILL_AREA_STYLE ('',( #101 ) ) ;
#73 = CARTESIAN_POINT ( 'NONE',  ( 4.999999999999997335, -0.9999999999999986677, 500.0000000000000000 ) ) ;
#74 = PRODUCT_DEFINITION ( 'UNKNOWN', '', #119, #110 ) ;
#75 = AXIS2_PLACEMENT_3D ( 'NONE', #95, #164, #20 ) ;
#76 = SURFACE_STYLE_USAGE ( .BOTH. , #103 ) ;
#77 = LINE ( 'NONE', #132, #93 ) ;
#78 = UNCERTAINTY_MEASURE_WITH_UNIT (LENGTH_MEASURE( 1.000000000000000082E-05 ), #29, 'distance_accuracy_value', 'NONE');
#79 = DIRECTION ( 'NONE',  ( 0.000000000000000000, 1.000000000000000000, 0.000000000000000000 ) ) ;
#80 = VECTOR ( 'NONE', #122, 1000.000000000000000 ) ;
#81 = ORIENTED_EDGE ( 'NONE', *, *, #150, .F. ) ;
#82 = ORIENTED_EDGE ( 'NONE', *, *, #45, .F. ) ;
#83 = ORIENTED_EDGE ( 'NONE', *, *, #54, .T. ) ;
#84 = AXIS2_PLACEMENT_3D ( 'NONE', #24, #41, #171 ) ;
#85 = CARTESIAN_POINT ( 'NONE',  ( -4.999999999999997335, 0.9999999999999974465, -500.0000000000000000 ) ) ;
#86 = ADVANCED_FACE ( 'NONE', ( #57 ), #121, .F. ) ;
#87 = CARTESIAN_POINT ( 'NONE',  ( -4.999999999999997335, 0.9999999999999974465, 500.0000000000000000 ) ) ;
#88 = DIRECTION ( 'NONE',  ( -1.301042606982606060E-16, 1.000000000000000000, 0.000000000000000000 ) ) ;
#89 = DIRECTION ( 'NONE',  ( 0.000000000000000000, 0.000000000000000000, -1.000000000000000000 ) ) ;
#90 = VECTOR ( 'NONE', #102, 1000.000000000000000 ) ;
#91 = EDGE_CURVE ( 'NONE', #100, #63, #36, .T. ) ;
#92 = APPLICATION_PROTOCOL_DEFINITION ( 'draft international standard', 'automotive_design', 1998, #168 ) ;
#93 = VECTOR ( 'NONE', #186, 1000.000000000000000 ) ;
#94 = EDGE_CURVE ( 'NONE', #99, #157, #104, .T. ) ;
#95 = CARTESIAN_POINT ( 'NONE',  ( 0.000000000000000000, 0.000000000000000000, 0.000000000000000000 ) ) ;
#96 = CARTESIAN_POINT ( 'NONE',  ( -4.999999999999997335, 0.9999999999999974465, 500.0000000000000000 ) ) ;
#97 = VERTEX_POINT ( 'NONE', #117 ) ;
#98 = VERTEX_POINT ( 'NONE', #12 ) ;
#99 = VERTEX_POINT ( 'NONE', #160 ) ;
#100 = VERTEX_POINT ( 'NONE', #35 ) ;
#101 = FILL_AREA_STYLE_COLOUR ( '', #58 ) ;
#102 = DIRECTION ( 'NONE',  ( 0.000000000000000000, 1.000000000000000000, 0.000000000000000000 ) ) ;
#103 = SURFACE_SIDE_STYLE ('',( #38 ) ) ;
#104 = LINE ( 'NONE', #9, #69 ) ;
#105 = UNCERTAINTY_MEASURE_WITH_UNIT (LENGTH_MEASURE( 1.000000000000000082E-05 ), #133, 'distance_accuracy_value', 'NONE');
#106 = APPLICATION_PROTOCOL_DEFINITION ( 'draft international standard', 'automotive_design', 1998, #15 ) ;
#107 = CARTESIAN_POINT ( 'NONE',  ( 4.999999999999997335, -0.9999999999999986677, 500.0000000000000000 ) ) ;
#108 = DIRECTION ( 'NONE',  ( 1.000000000000000000, 1.301042606982606060E-16, 0.000000000000000000 ) ) ;
#109 = CARTESIAN_POINT ( 'NONE',  ( -4.999999999999997335, -1.000000000000000000, 500.0000000000000000 ) ) ;
#110 = PRODUCT_DEFINITION_CONTEXT ( 'detailed design', #15, 'design' ) ;
#111 = DIRECTION ( 'NONE',  ( -0.000000000000000000, -0.000000000000000000, -1.000000000000000000 ) ) ;
#112 = ORIENTED_EDGE ( 'NONE', *, *, #70, .F. ) ;
#113 = EDGE_LOOP ( 'NONE', ( #126, #49, #155, #128 ) ) ;
#114 = ADVANCED_FACE ( 'NONE', ( #26 ), #158, .T. ) ;
#115 = LINE ( 'NONE', #149, #2 ) ;
#116 = VECTOR ( 'NONE', #64, 1000.000000000000000 ) ;
#117 = CARTESIAN_POINT ( 'NONE',  ( 4.999999999999997335, -0.9999999999999986677, 500.0000000000000000 ) ) ;
#118 = DIRECTION ( 'NONE',  ( -1.000000000000000000, 0.000000000000000000, 0.000000000000000000 ) ) ;
#119 = PRODUCT_DEFINITION_FORMATION_WITH_SPECIFIED_SOURCE ( 'ANY', '', #14, .NOT_KNOWN. ) ;
#120 = EDGE_CURVE ( 'NONE', #157, #97, #77, .T. ) ;
#121 = PLANE ( 'NONE',  #84 ) ;
#122 = DIRECTION ( 'NONE',  ( -0.000000000000000000, -0.000000000000000000, -1.000000000000000000 ) ) ;
#123 = VECTOR ( 'NONE', #66, 1000.000000000000000 ) ;
#124 = FACE_OUTER_BOUND ( 'NONE', #33, .T. ) ;
#125 = CARTESIAN_POINT ( 'NONE',  ( -4.999999999999997335, -1.000000000000000000, 500.0000000000000000 ) ) ;
#126 = ORIENTED_EDGE ( 'NONE', *, *, #70, .T. ) ;
#127 = PLANE ( 'NONE',  #21 ) ;
#128 = ORIENTED_EDGE ( 'NONE', *, *, #150, .T. ) ;
#129 =( GEOMETRIC_REPRESENTATION_CONTEXT ( 3 ) GLOBAL_UNCERTAINTY_ASSIGNED_CONTEXT ( ( #78 ) ) GLOBAL_UNIT_ASSIGNED_CONTEXT ( ( #29, #137, #31 ) ) REPRESENTATION_CONTEXT ( 'NONE', 'WORKASPACE' ) );
#130 = VERTEX_POINT ( 'NONE', #53 ) ;
#131 = ORIENTED_EDGE ( 'NONE', *, *, #61, .T. ) ;
#132 = CARTESIAN_POINT ( 'NONE',  ( -4.999999999999997335, -1.000000000000000000, 500.0000000000000000 ) ) ;
#133 =( LENGTH_UNIT ( ) NAMED_UNIT ( * ) SI_UNIT ( .MILLI., .METRE. ) );
#134 = PLANE ( 'NONE',  #62 ) ;
#135 = LINE ( 'NONE', #179, #116 ) ;
#136 = EDGE_CURVE ( 'NONE', #63, #98, #172, .T. ) ;
#137 =( NAMED_UNIT ( * ) PLANE_ANGLE_UNIT ( ) SI_UNIT ( $, .RADIAN. ) );
#138 = ORIENTED_EDGE ( 'NONE', *, *, #120, .F. ) ;
#139 = PRODUCT_DEFINITION_SHAPE ( 'NONE', 'NONE',  #74 ) ;
#140 = LINE ( 'NONE', #182, #17 ) ;
#141 = ORIENTED_EDGE ( 'NONE', *, *, #61, .F. ) ;
#142 = AXIS2_PLACEMENT_3D ( 'NONE', #144, #88, #146 ) ;
#143 = VERTEX_POINT ( 'NONE', #181 ) ;
#144 = CARTESIAN_POINT ( 'NONE',  ( -4.999999999999997335, -1.000000000000000000, 500.0000000000000000 ) ) ;
#145 = DIRECTION ( 'NONE',  ( -0.000000000000000000, -1.000000000000000000, -0.000000000000000000 ) ) ;
#146 = DIRECTION ( 'NONE',  ( -1.000000000000000000, -1.301042606982606060E-16, 0.000000000000000000 ) ) ;
#147 = VECTOR ( 'NONE', #161, 1000.000000000000000 ) ;
#148 = PRESENTATION_STYLE_ASSIGNMENT (( #76 ) ) ;
#149 = CARTESIAN_POINT ( 'NONE',  ( -4.999999999999997335, -1.000000000000000000, -500.0000000000000000 ) ) ;
#150 = EDGE_CURVE ( 'NONE', #97, #143, #43, .T. ) ;
#151 = MECHANICAL_DESIGN_GEOMETRIC_PRESENTATION_REPRESENTATION (  '', ( #50 ), #153 ) ;
#152 = PRODUCT_CONTEXT ( 'NONE', #168, 'mechanical' ) ;
#153 =( GEOMETRIC_REPRESENTATION_CONTEXT ( 3 ) GLOBAL_UNCERTAINTY_ASSIGNED_CONTEXT ( ( #105 ) ) GLOBAL_UNIT_ASSIGNED_CONTEXT ( ( #133, #187, #27 ) ) REPRESENTATION_CONTEXT ( 'NONE', 'WORKASPACE' ) );
#154 = ORIENTED_EDGE ( 'NONE', *, *, #136, .F. ) ;
#155 = ORIENTED_EDGE ( 'NONE', *, *, #54, .F. ) ;
#156 = CARTESIAN_POINT ( 'NONE',  ( -4.999999999999997335, 0.9999999999999974465, 500.0000000000000000 ) ) ;
#157 = VERTEX_POINT ( 'NONE', #109 ) ;
#158 = PLANE ( 'NONE',  #175 ) ;
#159 = EDGE_CURVE ( 'NONE', #130, #100, #135, .T. ) ;
#160 = CARTESIAN_POINT ( 'NONE',  ( -4.999999999999997335, 0.9999999999999974465, 500.0000000000000000 ) ) ;
#161 = DIRECTION ( 'NONE',  ( -1.000000000000000000, -1.301042606982606060E-16, -0.000000000000000000 ) ) ;
#162 = ADVANCED_FACE ( 'NONE', ( #46 ), #127, .F. ) ;
#163 = DIRECTION ( 'NONE',  ( 1.000000000000000000, 0.000000000000000000, 0.000000000000000000 ) ) ;
#164 = DIRECTION ( 'NONE',  ( 0.000000000000000000, 0.000000000000000000, 1.000000000000000000 ) ) ;
#165 = ORIENTED_EDGE ( 'NONE', *, *, #45, .T. ) ;
#166 = FACE_OUTER_BOUND ( 'NONE', #65, .T. ) ;
#167 = PRODUCT_RELATED_PRODUCT_CATEGORY ( 'part', '', ( #14 ) ) ;
#168 = APPLICATION_CONTEXT ( 'automotive_design' ) ;
#169 = ORIENTED_EDGE ( 'NONE', *, *, #91, .F. ) ;
#170 = VECTOR ( 'NONE', #48, 1000.000000000000000 ) ;
#171 = DIRECTION ( 'NONE',  ( -1.000000000000000000, 0.000000000000000000, -0.000000000000000000 ) ) ;
#172 = LINE ( 'NONE', #60, #123 ) ;
#173 = DIRECTION ( 'NONE',  ( 1.000000000000000000, 1.301042606982606060E-16, 0.000000000000000000 ) ) ;
#174 = LINE ( 'NONE', #37, #185 ) ;
#175 = AXIS2_PLACEMENT_3D ( 'NONE', #25, #89, #10 ) ;
#176 = ADVANCED_BREP_SHAPE_REPRESENTATION ( 'SH10S2X \X2\0410043b044e043c0438043d0438043504320430044f\X0\ \X2\043f043e043b043e04410430\X0\ \X2\04100414\X0\31\X2\0422\X0\ 10\X2\0445\X0\2 (\X2\041104350437\X0\ \X2\043f043e043a0440044b04420438044f\X0\)', ( #39, #75 ), #129 ) ;
#177 = CARTESIAN_POINT ( 'NONE',  ( 4.999999999999997335, -0.9999999999999986677, 500.0000000000000000 ) ) ;
#178 = EDGE_CURVE ( 'NONE', #99, #63, #28, .T. ) ;
#179 = CARTESIAN_POINT ( 'NONE',  ( 4.999999999999997335, 0.9999999999999986677, 500.0000000000000000 ) ) ;
#180 = PLANE ( 'NONE',  #40 ) ;
#181 = CARTESIAN_POINT ( 'NONE',  ( 4.999999999999997335, -0.9999999999999986677, -500.0000000000000000 ) ) ;
#182 = CARTESIAN_POINT ( 'NONE',  ( -4.999999999999997335, -1.000000000000000000, 500.0000000000000000 ) ) ;
#183 = EDGE_LOOP ( 'NONE', ( #112, #141, #154, #169 ) ) ;
#184 = EDGE_LOOP ( 'NONE', ( #83, #165, #6, #71 ) ) ;
#185 = VECTOR ( 'NONE', #79, 1000.000000000000000 ) ;
#186 = DIRECTION ( 'NONE',  ( 1.000000000000000000, 1.301042606982606060E-16, 0.000000000000000000 ) ) ;
#187 =( NAMED_UNIT ( * ) PLANE_ANGLE_UNIT ( ) SI_UNIT ( $, .RADIAN. ) );
ENDSEC;
END-ISO-10303-21;
