ISO-10303-21;
HEADER;
FILE_DESCRIPTION (( 'STEP AP214' ),
    '1' );
FILE_NAME ('A222 Òðàïåöåèäàëüíûé âèíò 8õ1531 ìì, 4-õ çàõîäíûé, øàã 2 ìì.STEP',
    '2019-09-11T09:38:33',
    ( 'Windows User' ),
    ( '' ),
    'SwSTEP 2.0',
    'SolidWorks 2018',
    '' );
FILE_SCHEMA (( 'AUTOMOTIVE_DESIGN' ));
ENDSEC;

DATA;
#1 = CARTESIAN_POINT ( 'NONE',  ( 0.0000000000000000000, 0.0000000000000000000, 0.0000000000000000000 ) ) ;
#2 = PLANE ( 'NONE',  #88 ) ;
#3 = DIRECTION ( 'NONE',  ( -1.000000000000000000, -0.0000000000000000000, -0.0000000000000000000 ) ) ;
#4 = ORIENTED_EDGE ( 'NONE', *, *, #48, .T. ) ;
#5 = CARTESIAN_POINT ( 'NONE',  ( 0.0000000000000000000, 0.0000000000000000000, 0.0000000000000000000 ) ) ;
#6 = SURFACE_STYLE_USAGE ( .BOTH. , #161 ) ;
#7 = CARTESIAN_POINT ( 'NONE',  ( 1531.000000000000000, 4.898587196589412829E-16, -4.000000000000000000 ) ) ;
#8 = CIRCLE ( 'NONE', #73, 4.000000000000000000 ) ;
#9 = UNCERTAINTY_MEASURE_WITH_UNIT (LENGTH_MEASURE( 1.000000000000000082E-05 ), #155, 'distance_accuracy_value', 'NONE');
#10 = PRESENTATION_LAYER_ASSIGNMENT (  '', '', ( #170 ) ) ;
#11 = ORIENTED_EDGE ( 'NONE', *, *, #139, .F. ) ;
#12 =( NAMED_UNIT ( * ) SI_UNIT ( $, .STERADIAN. ) SOLID_ANGLE_UNIT ( ) );
#13 = COLOUR_RGB ( '',0.7960784313725489669, 0.8235294117647058432, 0.9372549019607843146 ) ;
#14 = UNCERTAINTY_MEASURE_WITH_UNIT (LENGTH_MEASURE( 1.000000000000000082E-05 ), #22, 'distance_accuracy_value', 'NONE');
#15 = ADVANCED_FACE ( 'NONE', ( #70 ), #39, .T. ) ;
#16 = PRESENTATION_STYLE_ASSIGNMENT (( #44 ) ) ;
#17 = FILL_AREA_STYLE_COLOUR ( '', #28 ) ;
#18 = SURFACE_SIDE_STYLE ('',( #159 ) ) ;
#19 = APPLICATION_CONTEXT ( 'automotive_design' ) ;
#20 = SHAPE_DEFINITION_REPRESENTATION ( #126, #135 ) ;
#21 = MECHANICAL_DESIGN_GEOMETRIC_PRESENTATION_REPRESENTATION (  '', ( #170 ), #30 ) ;
#22 =( LENGTH_UNIT ( ) NAMED_UNIT ( * ) SI_UNIT ( .MILLI., .METRE. ) );
#23 = FILL_AREA_STYLE_COLOUR ( '', #103 ) ;
#24 = LINE ( 'NONE', #80, #84 ) ;
#25 =( NAMED_UNIT ( * ) PLANE_ANGLE_UNIT ( ) SI_UNIT ( $, .RADIAN. ) );
#26 = AXIS2_PLACEMENT_3D ( 'NONE', #59, #91, #62 ) ;
#27 = UNCERTAINTY_MEASURE_WITH_UNIT (LENGTH_MEASURE( 1.000000000000000082E-05 ), #116, 'distance_accuracy_value', 'NONE');
#28 = COLOUR_RGB ( '',0.7960784313725489669, 0.8235294117647058432, 0.9372549019607843146 ) ;
#29 =( NAMED_UNIT ( * ) PLANE_ANGLE_UNIT ( ) SI_UNIT ( $, .RADIAN. ) );
#30 =( GEOMETRIC_REPRESENTATION_CONTEXT ( 3 ) GLOBAL_UNCERTAINTY_ASSIGNED_CONTEXT ( ( #109 ) ) GLOBAL_UNIT_ASSIGNED_CONTEXT ( ( #168, #165, #51 ) ) REPRESENTATION_CONTEXT ( 'NONE', 'WORKASPACE' ) );
#31 = FILL_AREA_STYLE ('',( #151 ) ) ;
#32 = DIRECTION ( 'NONE',  ( 0.0000000000000000000, 0.0000000000000000000, -1.000000000000000000 ) ) ;
#33 = DIRECTION ( 'NONE',  ( -1.000000000000000000, -0.0000000000000000000, -0.0000000000000000000 ) ) ;
#34 = EDGE_CURVE ( 'NONE', #57, #61, #98, .T. ) ;
#35 = SURFACE_SIDE_STYLE ('',( #52 ) ) ;
#36 = FACE_OUTER_BOUND ( 'NONE', #147, .T. ) ;
#37 = ORIENTED_EDGE ( 'NONE', *, *, #110, .T. ) ;
#38 = CIRCLE ( 'NONE', #114, 4.000000000000000000 ) ;
#39 = PLANE ( 'NONE',  #42 ) ;
#40 = CARTESIAN_POINT ( 'NONE',  ( 1531.000000000000000, 0.0000000000000000000, 0.0000000000000000000 ) ) ;
#41 = DIRECTION ( 'NONE',  ( 1.000000000000000000, 0.0000000000000000000, 0.0000000000000000000 ) ) ;
#42 = AXIS2_PLACEMENT_3D ( 'NONE', #40, #41, #55 ) ;
#43 =( LENGTH_UNIT ( ) NAMED_UNIT ( * ) SI_UNIT ( .MILLI., .METRE. ) );
#44 = SURFACE_STYLE_USAGE ( .BOTH. , #18 ) ;
#45 =( NAMED_UNIT ( * ) SI_UNIT ( $, .STERADIAN. ) SOLID_ANGLE_UNIT ( ) );
#46 = ORIENTED_EDGE ( 'NONE', *, *, #110, .F. ) ;
#47 = DIRECTION ( 'NONE',  ( 0.0000000000000000000, 0.0000000000000000000, -1.000000000000000000 ) ) ;
#48 = EDGE_CURVE ( 'NONE', #105, #120, #8, .T. ) ;
#49 = APPLICATION_CONTEXT ( 'automotive_design' ) ;
#50 = MANIFOLD_SOLID_BREP ( 'Áîáûøêà-Âûòÿíóòü1', #108 ) ;
#51 =( NAMED_UNIT ( * ) SI_UNIT ( $, .STERADIAN. ) SOLID_ANGLE_UNIT ( ) );
#52 = SURFACE_STYLE_FILL_AREA ( #152 ) ;
#53 = EDGE_CURVE ( 'NONE', #120, #57, #74, .T. ) ;
#54 = CYLINDRICAL_SURFACE ( 'NONE', #154, 4.000000000000000000 ) ;
#55 = DIRECTION ( 'NONE',  ( 0.0000000000000000000, 0.0000000000000000000, -1.000000000000000000 ) ) ;
#56 = PRESENTATION_LAYER_ASSIGNMENT (  '', '', ( #157 ) ) ;
#57 = VERTEX_POINT ( 'NONE', #128 ) ;
#58 = UNCERTAINTY_MEASURE_WITH_UNIT (LENGTH_MEASURE( 1.000000000000000082E-05 ), #43, 'distance_accuracy_value', 'NONE');
#59 = CARTESIAN_POINT ( 'NONE',  ( 1531.000000000000000, 0.0000000000000000000, 0.0000000000000000000 ) ) ;
#60 = DIRECTION ( 'NONE',  ( 1.000000000000000000, 0.0000000000000000000, 0.0000000000000000000 ) ) ;
#61 = VERTEX_POINT ( 'NONE', #164 ) ;
#62 = DIRECTION ( 'NONE',  ( 0.0000000000000000000, 0.0000000000000000000, -1.000000000000000000 ) ) ;
#63 = FILL_AREA_STYLE ('',( #17 ) ) ;
#64 = SURFACE_SIDE_STYLE ('',( #92 ) ) ;
#65 = SURFACE_STYLE_USAGE ( .BOTH. , #35 ) ;
#66 = AXIS2_PLACEMENT_3D ( 'NONE', #1, #60, #160 ) ;
#67 = ORIENTED_EDGE ( 'NONE', *, *, #53, .F. ) ;
#68 = PRODUCT ( 'A222 Òðàïåöåèäàëüíûé âèíò 8õ1531 ìì, 4-õ çàõîäíûé, øàã 2 ìì', 'A222 Òðàïåöåèäàëüíûé âèíò 8õ1531 ìì, 4-õ çàõîäíûé, øàã 2 ìì', '', ( #83 ) ) ;
#69 = DIRECTION ( 'NONE',  ( 0.0000000000000000000, 0.0000000000000000000, 1.000000000000000000 ) ) ;
#70 = FACE_OUTER_BOUND ( 'NONE', #133, .T. ) ;
#71 = EDGE_CURVE ( 'NONE', #61, #57, #38, .T. ) ;
#72 = ADVANCED_FACE ( 'NONE', ( #166 ), #2, .F. ) ;
#73 = AXIS2_PLACEMENT_3D ( 'NONE', #117, #129, #32 ) ;
#74 = LINE ( 'NONE', #106, #81 ) ;
#75 = ORIENTED_EDGE ( 'NONE', *, *, #53, .T. ) ;
#76 = STYLED_ITEM ( 'NONE', ( #141 ), #50 ) ;
#77 = CYLINDRICAL_SURFACE ( 'NONE', #112, 4.000000000000000000 ) ;
#78 = DIRECTION ( 'NONE',  ( 1.000000000000000000, 0.0000000000000000000, 0.0000000000000000000 ) ) ;
#79 =( NAMED_UNIT ( * ) SI_UNIT ( $, .STERADIAN. ) SOLID_ANGLE_UNIT ( ) );
#80 = CARTESIAN_POINT ( 'NONE',  ( 1531.000000000000000, 4.898587196589412829E-16, -4.000000000000000000 ) ) ;
#81 = VECTOR ( 'NONE', #136, 1000.000000000000000 ) ;
#82 = DIRECTION ( 'NONE',  ( 0.0000000000000000000, 0.0000000000000000000, -1.000000000000000000 ) ) ;
#83 = PRODUCT_CONTEXT ( 'NONE', #19, 'mechanical' ) ;
#84 = VECTOR ( 'NONE', #3, 1000.000000000000000 ) ;
#85 = AXIS2_PLACEMENT_3D ( 'NONE', #131, #69, #169 ) ;
#86 = APPLICATION_PROTOCOL_DEFINITION ( 'draft international standard', 'automotive_design', 1998, #49 ) ;
#87 = PRODUCT_DEFINITION_FORMATION_WITH_SPECIFIED_SOURCE ( 'ANY', '', #68, .NOT_KNOWN. ) ;
#88 = AXIS2_PLACEMENT_3D ( 'NONE', #132, #148, #47 ) ;
#89 =( GEOMETRIC_REPRESENTATION_CONTEXT ( 3 ) GLOBAL_UNCERTAINTY_ASSIGNED_CONTEXT ( ( #58 ) ) GLOBAL_UNIT_ASSIGNED_CONTEXT ( ( #43, #134, #45 ) ) REPRESENTATION_CONTEXT ( 'NONE', 'WORKASPACE' ) );
#90 = CARTESIAN_POINT ( 'NONE',  ( 1531.000000000000000, 0.0000000000000000000, 0.0000000000000000000 ) ) ;
#91 = DIRECTION ( 'NONE',  ( 1.000000000000000000, 0.0000000000000000000, 0.0000000000000000000 ) ) ;
#92 = SURFACE_STYLE_FILL_AREA ( #63 ) ;
#93 = CARTESIAN_POINT ( 'NONE',  ( 1531.000000000000000, 0.0000000000000000000, 0.0000000000000000000 ) ) ;
#94 =( NAMED_UNIT ( * ) PLANE_ANGLE_UNIT ( ) SI_UNIT ( $, .RADIAN. ) );
#95 = MECHANICAL_DESIGN_GEOMETRIC_PRESENTATION_REPRESENTATION (  '', ( #157 ), #89 ) ;
#96 = ORIENTED_EDGE ( 'NONE', *, *, #34, .F. ) ;
#97 =( GEOMETRIC_REPRESENTATION_CONTEXT ( 3 ) GLOBAL_UNCERTAINTY_ASSIGNED_CONTEXT ( ( #14 ) ) GLOBAL_UNIT_ASSIGNED_CONTEXT ( ( #22, #29, #122 ) ) REPRESENTATION_CONTEXT ( 'NONE', 'WORKASPACE' ) );
#98 = CIRCLE ( 'NONE', #66, 4.000000000000000000 ) ;
#99 = ORIENTED_EDGE ( 'NONE', *, *, #139, .T. ) ;
#100 = DIRECTION ( 'NONE',  ( 0.0000000000000000000, 0.0000000000000000000, 1.000000000000000000 ) ) ;
#101 = STYLED_ITEM ( 'NONE', ( #153 ), #145 ) ;
#102 = CARTESIAN_POINT ( 'NONE',  ( 1531.000000000000000, 0.0000000000000000000, 4.000000000000000000 ) ) ;
#103 = COLOUR_RGB ( '',0.7960784313725489669, 0.8235294117647058432, 0.9372549019607843146 ) ;
#104 = PRODUCT_DEFINITION_CONTEXT ( 'detailed design', #49, 'design' ) ;
#105 = VERTEX_POINT ( 'NONE', #7 ) ;
#106 = CARTESIAN_POINT ( 'NONE',  ( 1531.000000000000000, 0.0000000000000000000, 4.000000000000000000 ) ) ;
#107 = FILL_AREA_STYLE_COLOUR ( '', #119 ) ;
#108 = CLOSED_SHELL ( 'NONE', ( #145, #125, #15, #72 ) ) ;
#109 = UNCERTAINTY_MEASURE_WITH_UNIT (LENGTH_MEASURE( 1.000000000000000082E-05 ), #168, 'distance_accuracy_value', 'NONE');
#110 = EDGE_CURVE ( 'NONE', #120, #105, #113, .T. ) ;
#111 = ORIENTED_EDGE ( 'NONE', *, *, #34, .T. ) ;
#112 = AXIS2_PLACEMENT_3D ( 'NONE', #90, #115, #163 ) ;
#113 = CIRCLE ( 'NONE', #26, 4.000000000000000000 ) ;
#114 = AXIS2_PLACEMENT_3D ( 'NONE', #5, #78, #82 ) ;
#115 = DIRECTION ( 'NONE',  ( -1.000000000000000000, -0.0000000000000000000, -0.0000000000000000000 ) ) ;
#116 =( LENGTH_UNIT ( ) NAMED_UNIT ( * ) SI_UNIT ( .MILLI., .METRE. ) );
#117 = CARTESIAN_POINT ( 'NONE',  ( 1531.000000000000000, 0.0000000000000000000, 0.0000000000000000000 ) ) ;
#118 = FILL_AREA_STYLE ('',( #107 ) ) ;
#119 = COLOUR_RGB ( '',0.7960784313725489669, 0.8235294117647058432, 0.9372549019607843146 ) ;
#120 = VERTEX_POINT ( 'NONE', #102 ) ;
#121 = PRESENTATION_LAYER_ASSIGNMENT (  '', '', ( #76 ) ) ;
#122 =( NAMED_UNIT ( * ) SI_UNIT ( $, .STERADIAN. ) SOLID_ANGLE_UNIT ( ) );
#123 = PRESENTATION_LAYER_ASSIGNMENT (  '', '', ( #101 ) ) ;
#124 = APPLICATION_PROTOCOL_DEFINITION ( 'draft international standard', 'automotive_design', 1998, #19 ) ;
#125 = ADVANCED_FACE ( 'NONE', ( #36 ), #77, .T. ) ;
#126 = PRODUCT_DEFINITION_SHAPE ( 'NONE', 'NONE',  #142 ) ;
#127 = EDGE_LOOP ( 'NONE', ( #167, #99, #138, #67 ) ) ;
#128 = CARTESIAN_POINT ( 'NONE',  ( 0.0000000000000000000, 0.0000000000000000000, 4.000000000000000000 ) ) ;
#129 = DIRECTION ( 'NONE',  ( 1.000000000000000000, 0.0000000000000000000, 0.0000000000000000000 ) ) ;
#130 = MECHANICAL_DESIGN_GEOMETRIC_PRESENTATION_REPRESENTATION (  '', ( #101 ), #97 ) ;
#131 = CARTESIAN_POINT ( 'NONE',  ( 0.0000000000000000000, 0.0000000000000000000, 0.0000000000000000000 ) ) ;
#132 = CARTESIAN_POINT ( 'NONE',  ( 0.0000000000000000000, 0.0000000000000000000, 0.0000000000000000000 ) ) ;
#133 = EDGE_LOOP ( 'NONE', ( #37, #4 ) ) ;
#134 =( NAMED_UNIT ( * ) PLANE_ANGLE_UNIT ( ) SI_UNIT ( $, .RADIAN. ) );
#135 = ADVANCED_BREP_SHAPE_REPRESENTATION ( 'A222 T¨ðÿõ¡õøôðû¹ývù òøýª 8¿1531 üü, 4-¿ ÷ð¿þôývù, °ðó 2 üü', ( #50, #85 ), #143 ) ;
#136 = DIRECTION ( 'NONE',  ( -1.000000000000000000, -0.0000000000000000000, -0.0000000000000000000 ) ) ;
#137 = PRESENTATION_STYLE_ASSIGNMENT (( #65 ) ) ;
#138 = ORIENTED_EDGE ( 'NONE', *, *, #71, .T. ) ;
#139 = EDGE_CURVE ( 'NONE', #105, #61, #24, .T. ) ;
#140 = MECHANICAL_DESIGN_GEOMETRIC_PRESENTATION_REPRESENTATION (  '', ( #76 ), #150 ) ;
#141 = PRESENTATION_STYLE_ASSIGNMENT (( #162 ) ) ;
#142 = PRODUCT_DEFINITION ( 'UNKNOWN', '', #87, #104 ) ;
#143 =( GEOMETRIC_REPRESENTATION_CONTEXT ( 3 ) GLOBAL_UNCERTAINTY_ASSIGNED_CONTEXT ( ( #9 ) ) GLOBAL_UNIT_ASSIGNED_CONTEXT ( ( #155, #94, #12 ) ) REPRESENTATION_CONTEXT ( 'NONE', 'WORKASPACE' ) );
#144 = ORIENTED_EDGE ( 'NONE', *, *, #71, .F. ) ;
#145 = ADVANCED_FACE ( 'NONE', ( #149 ), #54, .T. ) ;
#146 = SURFACE_STYLE_FILL_AREA ( #31 ) ;
#147 = EDGE_LOOP ( 'NONE', ( #11, #46, #75, #111 ) ) ;
#148 = DIRECTION ( 'NONE',  ( 1.000000000000000000, 0.0000000000000000000, 0.0000000000000000000 ) ) ;
#149 = FACE_OUTER_BOUND ( 'NONE', #127, .T. ) ;
#150 =( GEOMETRIC_REPRESENTATION_CONTEXT ( 3 ) GLOBAL_UNCERTAINTY_ASSIGNED_CONTEXT ( ( #27 ) ) GLOBAL_UNIT_ASSIGNED_CONTEXT ( ( #116, #25, #79 ) ) REPRESENTATION_CONTEXT ( 'NONE', 'WORKASPACE' ) );
#151 = FILL_AREA_STYLE_COLOUR ( '', #13 ) ;
#152 = FILL_AREA_STYLE ('',( #23 ) ) ;
#153 = PRESENTATION_STYLE_ASSIGNMENT (( #6 ) ) ;
#154 = AXIS2_PLACEMENT_3D ( 'NONE', #93, #33, #100 ) ;
#155 =( LENGTH_UNIT ( ) NAMED_UNIT ( * ) SI_UNIT ( .MILLI., .METRE. ) );
#156 = EDGE_LOOP ( 'NONE', ( #96, #144 ) ) ;
#157 = STYLED_ITEM ( 'NONE', ( #16 ), #125 ) ;
#158 = PRODUCT_RELATED_PRODUCT_CATEGORY ( 'part', '', ( #68 ) ) ;
#159 = SURFACE_STYLE_FILL_AREA ( #118 ) ;
#160 = DIRECTION ( 'NONE',  ( 0.0000000000000000000, 0.0000000000000000000, -1.000000000000000000 ) ) ;
#161 = SURFACE_SIDE_STYLE ('',( #146 ) ) ;
#162 = SURFACE_STYLE_USAGE ( .BOTH. , #64 ) ;
#163 = DIRECTION ( 'NONE',  ( 0.0000000000000000000, 0.0000000000000000000, 1.000000000000000000 ) ) ;
#164 = CARTESIAN_POINT ( 'NONE',  ( 0.0000000000000000000, 4.898587196589412829E-16, -4.000000000000000000 ) ) ;
#165 =( NAMED_UNIT ( * ) PLANE_ANGLE_UNIT ( ) SI_UNIT ( $, .RADIAN. ) );
#166 = FACE_OUTER_BOUND ( 'NONE', #156, .T. ) ;
#167 = ORIENTED_EDGE ( 'NONE', *, *, #48, .F. ) ;
#168 =( LENGTH_UNIT ( ) NAMED_UNIT ( * ) SI_UNIT ( .MILLI., .METRE. ) );
#169 = DIRECTION ( 'NONE',  ( 1.000000000000000000, 0.0000000000000000000, 0.0000000000000000000 ) ) ;
#170 = STYLED_ITEM ( 'NONE', ( #137 ), #135 ) ;
ENDSEC;
END-ISO-10303-21;
