ISO-10303-21;
HEADER;
FILE_DESCRIPTION (( 'STEP AP214' ),
    '1' );
FILE_NAME ('A212 Øàéáà O 8  O 12.STEP',
    '2019-10-10T09:49:21',
    ( 'Windows User' ),
    ( '' ),
    'SwSTEP 2.0',
    'SolidWorks 2019',
    '' );
FILE_SCHEMA (( 'AUTOMOTIVE_DESIGN' ));
ENDSEC;

DATA;
#1 = ADVANCED_FACE ( 'NONE', ( #80 ), #8, .T. ) ;
#2 = EDGE_LOOP ( 'NONE', ( #11, #121 ) ) ;
#3 = ORIENTED_EDGE ( 'NONE', *, *, #189, .T. ) ;
#4 = PRODUCT_DEFINITION_SHAPE ( 'NONE', 'NONE',  #115 ) ;
#5 = SURFACE_STYLE_FILL_AREA ( #203 ) ;
#6 = CARTESIAN_POINT ( 'NONE',  ( 0.0000000000000000000, 0.0000000000000000000, 0.0000000000000000000 ) ) ;
#7 = CARTESIAN_POINT ( 'NONE',  ( 0.0000000000000000000, 0.0000000000000000000, 0.0000000000000000000 ) ) ;
#8 = CYLINDRICAL_SURFACE ( 'NONE', #37, 6.000000000000000000 ) ;
#9 = AXIS2_PLACEMENT_3D ( 'NONE', #210, #125, #173 ) ;
#10 = DIRECTION ( 'NONE',  ( -1.000000000000000000, 0.0000000000000000000, 0.0000000000000000000 ) ) ;
#11 = ORIENTED_EDGE ( 'NONE', *, *, #184, .T. ) ;
#12 = DIRECTION ( 'NONE',  ( 0.0000000000000000000, 0.0000000000000000000, 1.000000000000000000 ) ) ;
#13 = CARTESIAN_POINT ( 'NONE',  ( 0.0000000000000000000, 0.0000000000000000000, 1.000000000000000000 ) ) ;
#14 = APPLICATION_CONTEXT ( 'automotive_design' ) ;
#15 = CARTESIAN_POINT ( 'NONE',  ( 0.0000000000000000000, 0.0000000000000000000, 0.0000000000000000000 ) ) ;
#16 = EDGE_CURVE ( 'NONE', #66, #166, #68, .T. ) ;
#17 =( GEOMETRIC_REPRESENTATION_CONTEXT ( 3 ) GLOBAL_UNCERTAINTY_ASSIGNED_CONTEXT ( ( #194 ) ) GLOBAL_UNIT_ASSIGNED_CONTEXT ( ( #163, #126, #36 ) ) REPRESENTATION_CONTEXT ( 'NONE', 'WORKASPACE' ) );
#18 = FACE_OUTER_BOUND ( 'NONE', #77, .T. ) ;
#19 = CIRCLE ( 'NONE', #50, 6.000000000000000000 ) ;
#20 =( NAMED_UNIT ( * ) SI_UNIT ( $, .STERADIAN. ) SOLID_ANGLE_UNIT ( ) );
#21 = DIRECTION ( 'NONE',  ( 0.0000000000000000000, 0.0000000000000000000, 1.000000000000000000 ) ) ;
#22 = EDGE_CURVE ( 'NONE', #66, #105, #81, .T. ) ;
#23 = APPLICATION_PROTOCOL_DEFINITION ( 'draft international standard', 'automotive_design', 1998, #14 ) ;
#24 = CIRCLE ( 'NONE', #192, 4.000000000000000000 ) ;
#25 = SURFACE_STYLE_USAGE ( .BOTH. , #46 ) ;
#26 = ORIENTED_EDGE ( 'NONE', *, *, #39, .T. ) ;
#27 = AXIS2_PLACEMENT_3D ( 'NONE', #159, #21, #212 ) ;
#28 = VERTEX_POINT ( 'NONE', #204 ) ;
#29 = ORIENTED_EDGE ( 'NONE', *, *, #44, .F. ) ;
#30 = ORIENTED_EDGE ( 'NONE', *, *, #189, .F. ) ;
#31 = CIRCLE ( 'NONE', #56, 4.000000000000000000 ) ;
#32 = CYLINDRICAL_SURFACE ( 'NONE', #149, 4.000000000000000000 ) ;
#33 = CYLINDRICAL_SURFACE ( 'NONE', #109, 4.000000000000000000 ) ;
#34 = DIRECTION ( 'NONE',  ( 0.0000000000000000000, 0.0000000000000000000, 1.000000000000000000 ) ) ;
#35 = CARTESIAN_POINT ( 'NONE',  ( 4.000000000000000000, -4.898587196589412829E-16, 0.0000000000000000000 ) ) ;
#36 =( NAMED_UNIT ( * ) SI_UNIT ( $, .STERADIAN. ) SOLID_ANGLE_UNIT ( ) );
#37 = AXIS2_PLACEMENT_3D ( 'NONE', #67, #136, #48 ) ;
#38 = FILL_AREA_STYLE_COLOUR ( '', #118 ) ;
#39 = EDGE_CURVE ( 'NONE', #41, #100, #164, .T. ) ;
#40 = CARTESIAN_POINT ( 'NONE',  ( -4.000000000000000000, 0.0000000000000000000, 0.0000000000000000000 ) ) ;
#41 = VERTEX_POINT ( 'NONE', #86 ) ;
#42 = CARTESIAN_POINT ( 'NONE',  ( 4.000000000000000000, -4.898587196589412829E-16, 0.0000000000000000000 ) ) ;
#43 = ORIENTED_EDGE ( 'NONE', *, *, #90, .F. ) ;
#44 = EDGE_CURVE ( 'NONE', #105, #201, #31, .T. ) ;
#45 = VERTEX_POINT ( 'NONE', #172 ) ;
#46 = SURFACE_SIDE_STYLE ('',( #5 ) ) ;
#47 = ORIENTED_EDGE ( 'NONE', *, *, #154, .T. ) ;
#48 = DIRECTION ( 'NONE',  ( -1.000000000000000000, 0.0000000000000000000, 0.0000000000000000000 ) ) ;
#49 = DIRECTION ( 'NONE',  ( 1.000000000000000000, 0.0000000000000000000, 0.0000000000000000000 ) ) ;
#50 = AXIS2_PLACEMENT_3D ( 'NONE', #73, #92, #183 ) ;
#51 = CARTESIAN_POINT ( 'NONE',  ( 0.0000000000000000000, 0.0000000000000000000, 0.0000000000000000000 ) ) ;
#52 = DIRECTION ( 'NONE',  ( 0.0000000000000000000, 0.0000000000000000000, 1.000000000000000000 ) ) ;
#53 = EDGE_CURVE ( 'NONE', #166, #201, #102, .T. ) ;
#54 = MANIFOLD_SOLID_BREP ( 'A212 Øàéáà O 8  O 12.stp', #182 ) ;
#55 = APPLICATION_PROTOCOL_DEFINITION ( 'draft international standard', 'automotive_design', 1998, #78 ) ;
#56 = AXIS2_PLACEMENT_3D ( 'NONE', #13, #107, #153 ) ;
#57 = DIRECTION ( 'NONE',  ( -1.000000000000000000, 0.0000000000000000000, 0.0000000000000000000 ) ) ;
#58 = PRESENTATION_LAYER_ASSIGNMENT (  '', '', ( #158 ) ) ;
#59 = FILL_AREA_STYLE_COLOUR ( '', #199 ) ;
#60 = EDGE_LOOP ( 'NONE', ( #191, #47 ) ) ;
#61 = ORIENTED_EDGE ( 'NONE', *, *, #62, .T. ) ;
#62 = EDGE_CURVE ( 'NONE', #41, #45, #117, .T. ) ;
#63 =( GEOMETRIC_REPRESENTATION_CONTEXT ( 3 ) GLOBAL_UNCERTAINTY_ASSIGNED_CONTEXT ( ( #161 ) ) GLOBAL_UNIT_ASSIGNED_CONTEXT ( ( #169, #150, #65 ) ) REPRESENTATION_CONTEXT ( 'NONE', 'WORKASPACE' ) );
#64 = EDGE_LOOP ( 'NONE', ( #114, #122, #171, #30 ) ) ;
#65 =( NAMED_UNIT ( * ) SI_UNIT ( $, .STERADIAN. ) SOLID_ANGLE_UNIT ( ) );
#66 = VERTEX_POINT ( 'NONE', #40 ) ;
#67 = CARTESIAN_POINT ( 'NONE',  ( 0.0000000000000000000, 0.0000000000000000000, 0.0000000000000000000 ) ) ;
#68 = CIRCLE ( 'NONE', #70, 4.000000000000000000 ) ;
#69 = FACE_OUTER_BOUND ( 'NONE', #205, .T. ) ;
#70 = AXIS2_PLACEMENT_3D ( 'NONE', #6, #148, #123 ) ;
#71 = UNCERTAINTY_MEASURE_WITH_UNIT (LENGTH_MEASURE( 1.000000000000000082E-05 ), #197, 'distance_accuracy_value', 'NONE');
#72 = PRODUCT_RELATED_PRODUCT_CATEGORY ( 'part', '', ( #181 ) ) ;
#73 = CARTESIAN_POINT ( 'NONE',  ( 0.0000000000000000000, 0.0000000000000000000, 1.000000000000000000 ) ) ;
#74 = MECHANICAL_DESIGN_GEOMETRIC_PRESENTATION_REPRESENTATION (  '', ( #82 ), #63 ) ;
#75 = SURFACE_SIDE_STYLE ('',( #213 ) ) ;
#76 = DIRECTION ( 'NONE',  ( 0.0000000000000000000, 0.0000000000000000000, 1.000000000000000000 ) ) ;
#77 = EDGE_LOOP ( 'NONE', ( #116, #178, #26, #83 ) ) ;
#78 = APPLICATION_CONTEXT ( 'automotive_design' ) ;
#79 = VECTOR ( 'NONE', #103, 1000.000000000000000 ) ;
#80 = FACE_OUTER_BOUND ( 'NONE', #151, .T. ) ;
#81 = LINE ( 'NONE', #133, #79 ) ;
#82 = STYLED_ITEM ( 'NONE', ( #120 ), #54 ) ;
#83 = ORIENTED_EDGE ( 'NONE', *, *, #209, .F. ) ;
#84 = EDGE_LOOP ( 'NONE', ( #170, #3 ) ) ;
#85 = FACE_OUTER_BOUND ( 'NONE', #119, .T. ) ;
#86 = CARTESIAN_POINT ( 'NONE',  ( -6.000000000000000000, 0.0000000000000000000, 0.0000000000000000000 ) ) ;
#87 = CARTESIAN_POINT ( 'NONE',  ( -6.780229091935660246E-16, 1.541976423090490210E-16, 0.0000000000000000000 ) ) ;
#88 = AXIS2_PLACEMENT_3D ( 'NONE', #7, #146, #57 ) ;
#89 =( GEOMETRIC_REPRESENTATION_CONTEXT ( 3 ) GLOBAL_UNCERTAINTY_ASSIGNED_CONTEXT ( ( #71 ) ) GLOBAL_UNIT_ASSIGNED_CONTEXT ( ( #197, #97, #20 ) ) REPRESENTATION_CONTEXT ( 'NONE', 'WORKASPACE' ) );
#90 = EDGE_CURVE ( 'NONE', #45, #41, #142, .T. ) ;
#91 = FACE_OUTER_BOUND ( 'NONE', #64, .T. ) ;
#92 = DIRECTION ( 'NONE',  ( 0.0000000000000000000, 0.0000000000000000000, 1.000000000000000000 ) ) ;
#93 = DIRECTION ( 'NONE',  ( -1.000000000000000000, 0.0000000000000000000, 0.0000000000000000000 ) ) ;
#94 = DIRECTION ( 'NONE',  ( 0.0000000000000000000, 0.0000000000000000000, -1.000000000000000000 ) ) ;
#95 = ORIENTED_EDGE ( 'NONE', *, *, #53, .T. ) ;
#96 = AXIS2_PLACEMENT_3D ( 'NONE', #51, #124, #108 ) ;
#97 =( NAMED_UNIT ( * ) PLANE_ANGLE_UNIT ( ) SI_UNIT ( $, .RADIAN. ) );
#98 = VECTOR ( 'NONE', #76, 1000.000000000000000 ) ;
#99 = ADVANCED_FACE ( 'NONE', ( #91 ), #33, .F. ) ;
#100 = VERTEX_POINT ( 'NONE', #152 ) ;
#101 = ORIENTED_EDGE ( 'NONE', *, *, #39, .F. ) ;
#102 = LINE ( 'NONE', #42, #187 ) ;
#103 = DIRECTION ( 'NONE',  ( 0.0000000000000000000, 0.0000000000000000000, 1.000000000000000000 ) ) ;
#104 = PRESENTATION_LAYER_ASSIGNMENT (  '', '', ( #82 ) ) ;
#105 = VERTEX_POINT ( 'NONE', #135 ) ;
#106 = CARTESIAN_POINT ( 'NONE',  ( 0.0000000000000000000, 0.0000000000000000000, 0.0000000000000000000 ) ) ;
#107 = DIRECTION ( 'NONE',  ( 0.0000000000000000000, 0.0000000000000000000, -1.000000000000000000 ) ) ;
#108 = DIRECTION ( 'NONE',  ( -1.000000000000000000, 0.0000000000000000000, 0.0000000000000000000 ) ) ;
#109 = AXIS2_PLACEMENT_3D ( 'NONE', #137, #34, #110 ) ;
#110 = DIRECTION ( 'NONE',  ( -1.000000000000000000, 0.0000000000000000000, 0.0000000000000000000 ) ) ;
#111 = MECHANICAL_DESIGN_GEOMETRIC_PRESENTATION_REPRESENTATION (  '', ( #158 ), #89 ) ;
#112 = PRESENTATION_STYLE_ASSIGNMENT (( #145 ) ) ;
#113 = CARTESIAN_POINT ( 'NONE',  ( -6.780229091935660246E-16, 1.541976423090490210E-16, 1.000000000000000000 ) ) ;
#114 = ORIENTED_EDGE ( 'NONE', *, *, #53, .F. ) ;
#115 = PRODUCT_DEFINITION ( 'UNKNOWN', '', #165, #211 ) ;
#116 = ORIENTED_EDGE ( 'NONE', *, *, #202, .F. ) ;
#117 = CIRCLE ( 'NONE', #88, 6.000000000000000000 ) ;
#118 = COLOUR_RGB ( '',0.7490196078431372584, 0.7490196078431372584, 0.7490196078431372584 ) ;
#119 = EDGE_LOOP ( 'NONE', ( #61, #177 ) ) ;
#120 = PRESENTATION_STYLE_ASSIGNMENT (( #25 ) ) ;
#121 = ORIENTED_EDGE ( 'NONE', *, *, #209, .T. ) ;
#122 = ORIENTED_EDGE ( 'NONE', *, *, #16, .F. ) ;
#123 = DIRECTION ( 'NONE',  ( -1.000000000000000000, 0.0000000000000000000, 0.0000000000000000000 ) ) ;
#124 = DIRECTION ( 'NONE',  ( 0.0000000000000000000, 0.0000000000000000000, -1.000000000000000000 ) ) ;
#125 = DIRECTION ( 'NONE',  ( 0.0000000000000000000, 0.0000000000000000000, 1.000000000000000000 ) ) ;
#126 =( NAMED_UNIT ( * ) PLANE_ANGLE_UNIT ( ) SI_UNIT ( $, .RADIAN. ) );
#127 = AXIS2_PLACEMENT_3D ( 'NONE', #113, #52, #141 ) ;
#128 = ADVANCED_FACE ( 'NONE', ( #18 ), #156, .T. ) ;
#129 = AXIS2_PLACEMENT_3D ( 'NONE', #87, #155, #139 ) ;
#130 = CARTESIAN_POINT ( 'NONE',  ( 0.0000000000000000000, 0.0000000000000000000, 0.0000000000000000000 ) ) ;
#131 = DIRECTION ( 'NONE',  ( 0.0000000000000000000, 0.0000000000000000000, 1.000000000000000000 ) ) ;
#132 = ORIENTED_EDGE ( 'NONE', *, *, #22, .F. ) ;
#133 = CARTESIAN_POINT ( 'NONE',  ( -4.000000000000000000, 0.0000000000000000000, 0.0000000000000000000 ) ) ;
#134 = CARTESIAN_POINT ( 'NONE',  ( -6.000000000000000000, 0.0000000000000000000, 0.0000000000000000000 ) ) ;
#135 = CARTESIAN_POINT ( 'NONE',  ( -4.000000000000000000, 0.0000000000000000000, 1.000000000000000000 ) ) ;
#136 = DIRECTION ( 'NONE',  ( 0.0000000000000000000, 0.0000000000000000000, 1.000000000000000000 ) ) ;
#137 = CARTESIAN_POINT ( 'NONE',  ( 0.0000000000000000000, 0.0000000000000000000, 0.0000000000000000000 ) ) ;
#138 = ADVANCED_FACE ( 'NONE', ( #69 ), #32, .F. ) ;
#139 = DIRECTION ( 'NONE',  ( 1.000000000000000000, 0.0000000000000000000, 0.0000000000000000000 ) ) ;
#140 = DIRECTION ( 'NONE',  ( 0.0000000000000000000, 0.0000000000000000000, 1.000000000000000000 ) ) ;
#141 = DIRECTION ( 'NONE',  ( 1.000000000000000000, 0.0000000000000000000, 0.0000000000000000000 ) ) ;
#142 = CIRCLE ( 'NONE', #96, 6.000000000000000000 ) ;
#143 = CIRCLE ( 'NONE', #200, 4.000000000000000000 ) ;
#144 = CARTESIAN_POINT ( 'NONE',  ( 4.000000000000000000, -4.898587196589412829E-16, 1.000000000000000000 ) ) ;
#145 = SURFACE_STYLE_USAGE ( .BOTH. , #75 ) ;
#146 = DIRECTION ( 'NONE',  ( 0.0000000000000000000, 0.0000000000000000000, -1.000000000000000000 ) ) ;
#147 = PRODUCT_CONTEXT ( 'NONE', #14, 'mechanical' ) ;
#148 = DIRECTION ( 'NONE',  ( 0.0000000000000000000, 0.0000000000000000000, 1.000000000000000000 ) ) ;
#149 = AXIS2_PLACEMENT_3D ( 'NONE', #15, #140, #10 ) ;
#150 =( NAMED_UNIT ( * ) PLANE_ANGLE_UNIT ( ) SI_UNIT ( $, .RADIAN. ) );
#151 = EDGE_LOOP ( 'NONE', ( #43, #176, #179, #101 ) ) ;
#152 = CARTESIAN_POINT ( 'NONE',  ( -6.000000000000000000, 0.0000000000000000000, 1.000000000000000000 ) ) ;
#153 = DIRECTION ( 'NONE',  ( -1.000000000000000000, 0.0000000000000000000, 0.0000000000000000000 ) ) ;
#154 = EDGE_CURVE ( 'NONE', #166, #66, #24, .T. ) ;
#155 = DIRECTION ( 'NONE',  ( 0.0000000000000000000, 0.0000000000000000000, 1.000000000000000000 ) ) ;
#156 = CYLINDRICAL_SURFACE ( 'NONE', #9, 6.000000000000000000 ) ;
#157 = FACE_BOUND ( 'NONE', #84, .T. ) ;
#158 = STYLED_ITEM ( 'NONE', ( #112 ), #160 ) ;
#159 = CARTESIAN_POINT ( 'NONE',  ( 0.0000000000000000000, 0.0000000000000000000, 1.000000000000000000 ) ) ;
#160 = ADVANCED_BREP_SHAPE_REPRESENTATION ( 'A212 +ðùñð O 8  O 12', ( #54, #196 ), #17 ) ;
#161 = UNCERTAINTY_MEASURE_WITH_UNIT (LENGTH_MEASURE( 1.000000000000000082E-05 ), #169, 'distance_accuracy_value', 'NONE');
#162 = ADVANCED_FACE ( 'NONE', ( #85, #207 ), #180, .F. ) ;
#163 =( LENGTH_UNIT ( ) NAMED_UNIT ( * ) SI_UNIT ( .MILLI., .METRE. ) );
#164 = LINE ( 'NONE', #134, #208 ) ;
#165 = PRODUCT_DEFINITION_FORMATION_WITH_SPECIFIED_SOURCE ( 'ANY', '', #181, .NOT_KNOWN. ) ;
#166 = VERTEX_POINT ( 'NONE', #35 ) ;
#167 = ORIENTED_EDGE ( 'NONE', *, *, #154, .F. ) ;
#168 = ADVANCED_FACE ( 'NONE', ( #193, #157 ), #186, .T. ) ;
#169 =( LENGTH_UNIT ( ) NAMED_UNIT ( * ) SI_UNIT ( .MILLI., .METRE. ) );
#170 = ORIENTED_EDGE ( 'NONE', *, *, #44, .T. ) ;
#171 = ORIENTED_EDGE ( 'NONE', *, *, #22, .T. ) ;
#172 = CARTESIAN_POINT ( 'NONE',  ( 6.000000000000000000, -7.347880794884119736E-16, 0.0000000000000000000 ) ) ;
#173 = DIRECTION ( 'NONE',  ( -1.000000000000000000, 0.0000000000000000000, 0.0000000000000000000 ) ) ;
#174 = FILL_AREA_STYLE ('',( #38 ) ) ;
#175 = SHAPE_DEFINITION_REPRESENTATION ( #4, #160 ) ;
#176 = ORIENTED_EDGE ( 'NONE', *, *, #202, .T. ) ;
#177 = ORIENTED_EDGE ( 'NONE', *, *, #90, .T. ) ;
#178 = ORIENTED_EDGE ( 'NONE', *, *, #62, .F. ) ;
#179 = ORIENTED_EDGE ( 'NONE', *, *, #184, .F. ) ;
#180 = PLANE ( 'NONE',  #129 ) ;
#181 = PRODUCT ( 'A212 Øàéáà O 8  O 12', 'A212 Øàéáà O 8  O 12', '', ( #147 ) ) ;
#182 = CLOSED_SHELL ( 'NONE', ( #1, #138, #99, #128, #162, #168 ) ) ;
#183 = DIRECTION ( 'NONE',  ( -1.000000000000000000, 0.0000000000000000000, 0.0000000000000000000 ) ) ;
#184 = EDGE_CURVE ( 'NONE', #100, #28, #185, .T. ) ;
#185 = CIRCLE ( 'NONE', #27, 6.000000000000000000 ) ;
#186 = PLANE ( 'NONE',  #127 ) ;
#187 = VECTOR ( 'NONE', #188, 1000.000000000000000 ) ;
#188 = DIRECTION ( 'NONE',  ( 0.0000000000000000000, 0.0000000000000000000, 1.000000000000000000 ) ) ;
#189 = EDGE_CURVE ( 'NONE', #201, #105, #143, .T. ) ;
#190 = DIRECTION ( 'NONE',  ( 0.0000000000000000000, 0.0000000000000000000, 1.000000000000000000 ) ) ;
#191 = ORIENTED_EDGE ( 'NONE', *, *, #16, .T. ) ;
#192 = AXIS2_PLACEMENT_3D ( 'NONE', #106, #12, #206 ) ;
#193 = FACE_OUTER_BOUND ( 'NONE', #2, .T. ) ;
#194 = UNCERTAINTY_MEASURE_WITH_UNIT (LENGTH_MEASURE( 1.000000000000000082E-05 ), #163, 'distance_accuracy_value', 'NONE');
#195 = LINE ( 'NONE', #198, #98 ) ;
#196 = AXIS2_PLACEMENT_3D ( 'NONE', #130, #131, #49 ) ;
#197 =( LENGTH_UNIT ( ) NAMED_UNIT ( * ) SI_UNIT ( .MILLI., .METRE. ) );
#198 = CARTESIAN_POINT ( 'NONE',  ( 6.000000000000000000, -7.347880794884119736E-16, 0.0000000000000000000 ) ) ;
#199 = COLOUR_RGB ( '',0.7490196078431372584, 0.7490196078431372584, 0.7490196078431372584 ) ;
#200 = AXIS2_PLACEMENT_3D ( 'NONE', #214, #94, #93 ) ;
#201 = VERTEX_POINT ( 'NONE', #144 ) ;
#202 = EDGE_CURVE ( 'NONE', #45, #28, #195, .T. ) ;
#203 = FILL_AREA_STYLE ('',( #59 ) ) ;
#204 = CARTESIAN_POINT ( 'NONE',  ( 6.000000000000000000, -7.347880794884119736E-16, 1.000000000000000000 ) ) ;
#205 = EDGE_LOOP ( 'NONE', ( #167, #95, #29, #132 ) ) ;
#206 = DIRECTION ( 'NONE',  ( -1.000000000000000000, 0.0000000000000000000, 0.0000000000000000000 ) ) ;
#207 = FACE_BOUND ( 'NONE', #60, .T. ) ;
#208 = VECTOR ( 'NONE', #190, 1000.000000000000000 ) ;
#209 = EDGE_CURVE ( 'NONE', #28, #100, #19, .T. ) ;
#210 = CARTESIAN_POINT ( 'NONE',  ( 0.0000000000000000000, 0.0000000000000000000, 0.0000000000000000000 ) ) ;
#211 = PRODUCT_DEFINITION_CONTEXT ( 'detailed design', #78, 'design' ) ;
#212 = DIRECTION ( 'NONE',  ( -1.000000000000000000, 0.0000000000000000000, 0.0000000000000000000 ) ) ;
#213 = SURFACE_STYLE_FILL_AREA ( #174 ) ;
#214 = CARTESIAN_POINT ( 'NONE',  ( 0.0000000000000000000, 0.0000000000000000000, 1.000000000000000000 ) ) ;
ENDSEC;
END-ISO-10303-21;
