ISO-10303-21;
HEADER;
FILE_DESCRIPTION (( 'STEP AP214' ),
    '1' );
FILE_NAME ('SNSD.30.51.34. Ñóõàðü ïàçîâûé Ì10 ïàç 10(C00).STEP',
    '2014-12-01T08:48:40',
    ( 'XTreme.ws' ),
    ( 'XTreme.ws' ),
    'SwSTEP 2.0',
    'SolidWorks 2014',
    '' );
FILE_SCHEMA (( 'AUTOMOTIVE_DESIGN' ));
ENDSEC;

DATA;
#1 = FACE_OUTER_BOUND ( 'NONE', #302, .T. ) ;
#2 = DIRECTION ( 'NONE',  ( -0.0000000000000000000, -1.000000000000000000, -0.0000000000000000000 ) ) ;
#3 = LINE ( 'NONE', #224, #148 ) ;
#4 = EDGE_CURVE ( 'NONE', #246, #18, #396, .T. ) ;
#5 = EDGE_CURVE ( 'NONE', #363, #311, #3, .T. ) ;
#6 = APPLICATION_PROTOCOL_DEFINITION ( 'draft international standard', 'automotive_design', 1998, #91 ) ;
#7 = VERTEX_POINT ( 'NONE', #36 ) ;
#8 = VECTOR ( 'NONE', #160, 1000.000000000000000 ) ;
#9 = DIRECTION ( 'NONE',  ( 0.0000000000000000000, 1.000000000000000000, 0.0000000000000000000 ) ) ;
#10 = STYLED_ITEM ( 'NONE', ( #282 ), #219 ) ;
#11 = CARTESIAN_POINT ( 'NONE',  ( -8.000000000000000000, 2.500000000000000000, -8.000000000000000000 ) ) ;
#12 = EDGE_CURVE ( 'NONE', #7, #405, #309, .T. ) ;
#13 = DIRECTION ( 'NONE',  ( -0.0000000000000000000, -0.0000000000000000000, -1.000000000000000000 ) ) ;
#14 = LINE ( 'NONE', #109, #182 ) ;
#15 = AXIS2_PLACEMENT_3D ( 'NONE', #327, #37, #289 ) ;
#16 = EDGE_CURVE ( 'NONE', #306, #76, #244, .T. ) ;
#17 = LINE ( 'NONE', #133, #170 ) ;
#18 = VERTEX_POINT ( 'NONE', #342 ) ;
#19 =( NAMED_UNIT ( * ) PLANE_ANGLE_UNIT ( ) SI_UNIT ( $, .RADIAN. ) );
#20 = FILL_AREA_STYLE_COLOUR ( '', #185 ) ;
#21 = LINE ( 'NONE', #206, #88 ) ;
#22 = FACE_OUTER_BOUND ( 'NONE', #210, .T. ) ;
#23 = DIRECTION ( 'NONE',  ( -0.0000000000000000000, -1.000000000000000000, -0.0000000000000000000 ) ) ;
#24 = AXIS2_PLACEMENT_3D ( 'NONE', #245, #242, #399 ) ;
#25 = AXIS2_PLACEMENT_3D ( 'NONE', #126, #139, #253 ) ;
#26 = MECHANICAL_DESIGN_GEOMETRIC_PRESENTATION_REPRESENTATION (  '', ( #153 ), #251 ) ;
#27 = DIRECTION ( 'NONE',  ( 0.0000000000000000000, 0.7071067811865482400, 0.7071067811865469100 ) ) ;
#28 = SURFACE_STYLE_FILL_AREA ( #40 ) ;
#29 = SURFACE_SIDE_STYLE ('',( #125 ) ) ;
#30 = EDGE_CURVE ( 'NONE', #18, #101, #388, .T. ) ;
#31 = ADVANCED_FACE ( 'NONE', ( #42 ), #65, .F. ) ;
#32 = ORIENTED_EDGE ( 'NONE', *, *, #105, .F. ) ;
#33 = PLANE ( 'NONE',  #158 ) ;
#34 = EDGE_CURVE ( 'NONE', #370, #306, #276, .T. ) ;
#35 = CLOSED_SHELL ( 'NONE', ( #347, #262, #216, #256, #114, #406, #94, #250, #81, #219, #110, #31 ) ) ;
#36 = CARTESIAN_POINT ( 'NONE',  ( 5.817072295949937300E-016, -2.500000000000000000, 4.750000000000008000 ) ) ;
#37 = DIRECTION ( 'NONE',  ( -0.0000000000000000000, -1.000000000000000000, -0.0000000000000000000 ) ) ;
#38 = FILL_AREA_STYLE_COLOUR ( '', #292 ) ;
#39 = EDGE_CURVE ( 'NONE', #295, #363, #287, .T. ) ;
#40 = FILL_AREA_STYLE ('',( #179 ) ) ;
#41 = VECTOR ( 'NONE', #300, 1000.000000000000000 ) ;
#42 = FACE_OUTER_BOUND ( 'NONE', #85, .T. ) ;
#43 = DIRECTION ( 'NONE',  ( -1.084202172485504400E-016, 0.0000000000000000000, 1.000000000000000000 ) ) ;
#44 = AXIS2_PLACEMENT_3D ( 'NONE', #332, #334, #235 ) ;
#45 = DIRECTION ( 'NONE',  ( -0.0000000000000000000, 1.000000000000000000, -0.0000000000000000000 ) ) ;
#46 = EDGE_LOOP ( 'NONE', ( #127, #221, #129, #280 ) ) ;
#47 = CARTESIAN_POINT ( 'NONE',  ( -8.000000000000000000, -2.500000000000000000, -8.000000000000000000 ) ) ;
#48 = FACE_OUTER_BOUND ( 'NONE', #310, .T. ) ;
#49 = DIRECTION ( 'NONE',  ( 0.0000000000000000000, 0.0000000000000000000, 1.000000000000000000 ) ) ;
#50 = PRODUCT_RELATED_PRODUCT_CATEGORY ( 'part', '', ( #97 ) ) ;
#51 = SURFACE_STYLE_USAGE ( .BOTH. , #29 ) ;
#52 = EDGE_CURVE ( 'NONE', #311, #211, #17, .T. ) ;
#53 = DIRECTION ( 'NONE',  ( 0.0000000000000000000, 0.0000000000000000000, 1.000000000000000000 ) ) ;
#54 =( NAMED_UNIT ( * ) PLANE_ANGLE_UNIT ( ) SI_UNIT ( $, .RADIAN. ) );
#55 = VECTOR ( 'NONE', #222, 1000.000000000000000 ) ;
#56 = ORIENTED_EDGE ( 'NONE', *, *, #34, .T. ) ;
#57 =( NAMED_UNIT ( * ) PLANE_ANGLE_UNIT ( ) SI_UNIT ( $, .RADIAN. ) );
#58 = EDGE_CURVE ( 'NONE', #370, #295, #14, .T. ) ;
#59 = DIRECTION ( 'NONE',  ( 0.0000000000000000000, 1.000000000000000000, 0.0000000000000000000 ) ) ;
#60 = FACE_BOUND ( 'NONE', #274, .T. ) ;
#61 = FACE_OUTER_BOUND ( 'NONE', #111, .T. ) ;
#62 = EDGE_CURVE ( 'NONE', #333, #89, #99, .T. ) ;
#63 = ORIENTED_EDGE ( 'NONE', *, *, #132, .F. ) ;
#64 = AXIS2_PLACEMENT_3D ( 'NONE', #82, #59, #394 ) ;
#65 = CONICAL_SURFACE ( 'NONE', #154, 4.250000000000000000, 0.7853981633974473900 ) ;
#66 =( LENGTH_UNIT ( ) NAMED_UNIT ( * ) SI_UNIT ( .MILLI., .METRE. ) );
#67 = CYLINDRICAL_SURFACE ( 'NONE', #74, 4.250000000000000000 ) ;
#68 = SURFACE_STYLE_FILL_AREA ( #398 ) ;
#69 = CARTESIAN_POINT ( 'NONE',  ( 0.0000000000000000000, 2.500000000000000000, 0.0000000000000000000 ) ) ;
#70 = MECHANICAL_DESIGN_GEOMETRIC_PRESENTATION_REPRESENTATION (  '', ( #355 ), #303 ) ;
#71 = ORIENTED_EDGE ( 'NONE', *, *, #325, .T. ) ;
#72 = EDGE_LOOP ( 'NONE', ( #241, #135, #376, #401 ) ) ;
#73 = CARTESIAN_POINT ( 'NONE',  ( 0.0000000000000000000, 2.000000000000002200, 0.0000000000000000000 ) ) ;
#74 = AXIS2_PLACEMENT_3D ( 'NONE', #284, #45, #366 ) ;
#75 = CARTESIAN_POINT ( 'NONE',  ( 0.0000000000000000000, -2.500000000000000000, -4.750000000000008000 ) ) ;
#76 = VERTEX_POINT ( 'NONE', #360 ) ;
#77 = PLANE ( 'NONE',  #384 ) ;
#78 = VECTOR ( 'NONE', #146, 999.9999999999998900 ) ;
#79 = CIRCLE ( 'NONE', #393, 4.250000000000000000 ) ;
#80 = DIRECTION ( 'NONE',  ( 0.0000000000000000000, 1.000000000000000000, 0.0000000000000000000 ) ) ;
#81 = ADVANCED_FACE ( 'NONE', ( #60, #304 ), #273, .F. ) ;
#82 = CARTESIAN_POINT ( 'NONE',  ( 0.0000000000000000000, 2.000000000000002200, 0.0000000000000000000 ) ) ;
#83 = ORIENTED_EDGE ( 'NONE', *, *, #194, .T. ) ;
#84 = ORIENTED_EDGE ( 'NONE', *, *, #124, .T. ) ;
#85 = EDGE_LOOP ( 'NONE', ( #189, #322, #397, #63 ) ) ;
#86 = CARTESIAN_POINT ( 'NONE',  ( 0.0000000000000000000, 2.500000000000000000, 0.0000000000000000000 ) ) ;
#87 = AXIS2_PLACEMENT_3D ( 'NONE', #192, #225, #134 ) ;
#88 = VECTOR ( 'NONE', #307, 1000.000000000000000 ) ;
#89 = VERTEX_POINT ( 'NONE', #128 ) ;
#90 = ORIENTED_EDGE ( 'NONE', *, *, #106, .F. ) ;
#91 = APPLICATION_CONTEXT ( 'automotive_design' ) ;
#92 = CARTESIAN_POINT ( 'NONE',  ( 8.000000000000000000, 2.500000000000000000, -7.999999999999998200 ) ) ;
#93 = FACE_OUTER_BOUND ( 'NONE', #392, .T. ) ;
#94 = ADVANCED_FACE ( 'NONE', ( #177 ), #257, .F. ) ;
#95 = VECTOR ( 'NONE', #335, 1000.000000000000000 ) ;
#96 = CARTESIAN_POINT ( 'NONE',  ( 8.000000000000000000, -2.500000000000000000, -7.999999999999998200 ) ) ;
#97 = PRODUCT ( 'SNSD.30.51.34. Ñóõàðü ïàçîâûé Ì10 ïàç 10(C00)', 'SNSD.30.51.34. Ñóõàðü ïàçîâûé Ì10 ïàç 10(C00)', '', ( #377 ) ) ;
#98 = EDGE_LOOP ( 'NONE', ( #266, #201, #288, #90 ) ) ;
#99 = CIRCLE ( 'NONE', #15, 4.250000000000000000 ) ;
#100 = DIRECTION ( 'NONE',  ( 0.0000000000000000000, 0.0000000000000000000, -1.000000000000000000 ) ) ;
#101 = VERTEX_POINT ( 'NONE', #227 ) ;
#102 = FACE_OUTER_BOUND ( 'NONE', #267, .T. ) ;
#103 = FILL_AREA_STYLE ('',( #20 ) ) ;
#104 = ORIENTED_EDGE ( 'NONE', *, *, #12, .T. ) ;
#105 = EDGE_CURVE ( 'NONE', #333, #405, #349, .T. ) ;
#106 = EDGE_CURVE ( 'NONE', #76, #311, #285, .T. ) ;
#107 = UNCERTAINTY_MEASURE_WITH_UNIT (LENGTH_MEASURE( 1.000000000000000100E-005 ), #305, 'distance_accuracy_value', 'NONE');
#108 =( NAMED_UNIT ( * ) PLANE_ANGLE_UNIT ( ) SI_UNIT ( $, .RADIAN. ) );
#109 = CARTESIAN_POINT ( 'NONE',  ( -8.000000000000000000, 2.500000000000000000, -8.000000000000000000 ) ) ;
#110 = ADVANCED_FACE ( 'NONE', ( #22 ), #230, .F. ) ;
#111 = EDGE_LOOP ( 'NONE', ( #71, #147, #258, #337 ) ) ;
#112 = DIRECTION ( 'NONE',  ( 0.0000000000000000000, -0.0000000000000000000, 1.000000000000000000 ) ) ;
#113 = DIRECTION ( 'NONE',  ( 1.000000000000000000, 0.0000000000000000000, 0.0000000000000000000 ) ) ;
#114 = ADVANCED_FACE ( 'NONE', ( #380 ), #136, .F. ) ;
#115 = CARTESIAN_POINT ( 'NONE',  ( 0.0000000000000000000, -2.500000000000000000, 4.250000000000000000 ) ) ;
#116 = ORIENTED_EDGE ( 'NONE', *, *, #132, .T. ) ;
#117 = ORIENTED_EDGE ( 'NONE', *, *, #5, .F. ) ;
#118 = CONICAL_SURFACE ( 'NONE', #64, 4.250000000000000000, 0.7853981633974473900 ) ;
#119 = DIRECTION ( 'NONE',  ( 0.0000000000000000000, 0.0000000000000000000, -1.000000000000000000 ) ) ;
#120 = ORIENTED_EDGE ( 'NONE', *, *, #58, .F. ) ;
#121 = CARTESIAN_POINT ( 'NONE',  ( 8.000000000000000000, 2.500000000000000000, -7.999999999999998200 ) ) ;
#122 = EDGE_CURVE ( 'NONE', #333, #18, #254, .T. ) ;
#123 = DIRECTION ( 'NONE',  ( 1.000000000000000000, 0.0000000000000000000, 0.0000000000000000000 ) ) ;
#124 = EDGE_CURVE ( 'NONE', #89, #246, #196, .T. ) ;
#125 = SURFACE_STYLE_FILL_AREA ( #103 ) ;
#126 = CARTESIAN_POINT ( 'NONE',  ( 0.0000000000000000000, -2.500000000000000000, 0.0000000000000000000 ) ) ;
#127 = ORIENTED_EDGE ( 'NONE', *, *, #214, .T. ) ;
#128 = CARTESIAN_POINT ( 'NONE',  ( 0.0000000000000000000, -1.999999999999991800, 4.250000000000000000 ) ) ;
#129 = ORIENTED_EDGE ( 'NONE', *, *, #316, .F. ) ;
#130 = PRESENTATION_STYLE_ASSIGNMENT (( #353 ) ) ;
#131 = DIRECTION ( 'NONE',  ( -1.084202172485504400E-016, 0.0000000000000000000, -1.000000000000000000 ) ) ;
#132 = EDGE_CURVE ( 'NONE', #101, #252, #387, .T. ) ;
#133 = CARTESIAN_POINT ( 'NONE',  ( 8.000000000000000000, -2.500000000000000000, -7.999999999999998200 ) ) ;
#134 = DIRECTION ( 'NONE',  ( 0.0000000000000000000, 0.0000000000000000000, 1.000000000000000000 ) ) ;
#135 = ORIENTED_EDGE ( 'NONE', *, *, #30, .T. ) ;
#136 = PLANE ( 'NONE',  #330 ) ;
#137 = CARTESIAN_POINT ( 'NONE',  ( 0.0000000000000000000, 2.000000000000002200, 0.0000000000000000000 ) ) ;
#138 = PRESENTATION_LAYER_ASSIGNMENT (  '', '', ( #286 ) ) ;
#139 = DIRECTION ( 'NONE',  ( -0.0000000000000000000, -1.000000000000000000, -0.0000000000000000000 ) ) ;
#140 = SURFACE_STYLE_FILL_AREA ( #339 ) ;
#141 = CARTESIAN_POINT ( 'NONE',  ( -7.999999999999998200, 2.500000000000000000, 8.000000000000000000 ) ) ;
#142 = EDGE_CURVE ( 'NONE', #207, #211, #402, .T. ) ;
#143 = LINE ( 'NONE', #279, #41 ) ;
#144 = DIRECTION ( 'NONE',  ( 0.0000000000000000000, 1.000000000000000000, 0.0000000000000000000 ) ) ;
#145 = AXIS2_PLACEMENT_3D ( 'NONE', #319, #167, #163 ) ;
#146 = DIRECTION ( 'NONE',  ( 8.659560562354926700E-017, -0.7071067811865482400, 0.7071067811865469100 ) ) ;
#147 = ORIENTED_EDGE ( 'NONE', *, *, #122, .T. ) ;
#148 = VECTOR ( 'NONE', #23, 1000.000000000000000 ) ;
#149 = CARTESIAN_POINT ( 'NONE',  ( -7.999999999999998200, -2.500000000000000000, 8.000000000000000000 ) ) ;
#150 = VECTOR ( 'NONE', #27, 999.9999999999998900 ) ;
#151 = UNCERTAINTY_MEASURE_WITH_UNIT (LENGTH_MEASURE( 1.000000000000000100E-005 ), #66, 'distance_accuracy_value', 'NONE');
#152 = DIRECTION ( 'NONE',  ( 1.084202172485504400E-016, 0.0000000000000000000, 1.000000000000000000 ) ) ;
#153 = STYLED_ITEM ( 'NONE', ( #130 ), #216 ) ;
#154 = AXIS2_PLACEMENT_3D ( 'NONE', #73, #144, #53 ) ;
#155 =( NAMED_UNIT ( * ) SI_UNIT ( $, .STERADIAN. ) SOLID_ANGLE_UNIT ( ) );
#156 = VECTOR ( 'NONE', #215, 1000.000000000000000 ) ;
#157 = DIRECTION ( 'NONE',  ( -0.0000000000000000000, 1.000000000000000000, -0.0000000000000000000 ) ) ;
#158 = AXIS2_PLACEMENT_3D ( 'NONE', #121, #261, #176 ) ;
#159 = VECTOR ( 'NONE', #113, 1000.000000000000000 ) ;
#160 = DIRECTION ( 'NONE',  ( -0.0000000000000000000, -0.0000000000000000000, -1.000000000000000000 ) ) ;
#161 = CARTESIAN_POINT ( 'NONE',  ( -8.000000000000000000, 2.500000000000000000, -8.000000000000000000 ) ) ;
#162 = EDGE_CURVE ( 'NONE', #295, #76, #143, .T. ) ;
#163 = DIRECTION ( 'NONE',  ( 0.0000000000000000000, 0.0000000000000000000, 1.000000000000000000 ) ) ;
#164 =( LENGTH_UNIT ( ) NAMED_UNIT ( * ) SI_UNIT ( .MILLI., .METRE. ) );
#165 = CARTESIAN_POINT ( 'NONE',  ( 5.817072295949937300E-016, -2.500000000000000000, 4.750000000000008000 ) ) ;
#166 = EDGE_CURVE ( 'NONE', #252, #101, #175, .T. ) ;
#167 = DIRECTION ( 'NONE',  ( 0.0000000000000000000, 1.000000000000000000, 0.0000000000000000000 ) ) ;
#168 = DIRECTION ( 'NONE',  ( 0.0000000000000000000, 0.0000000000000000000, 1.000000000000000000 ) ) ;
#169 = ORIENTED_EDGE ( 'NONE', *, *, #122, .F. ) ;
#170 = VECTOR ( 'NONE', #13, 1000.000000000000000 ) ;
#171 = CARTESIAN_POINT ( 'NONE',  ( 0.0000000000000000000, -2.500000000000000000, 0.0000000000000000000 ) ) ;
#172 = DIRECTION ( 'NONE',  ( 0.0000000000000000000, 0.0000000000000000000, 1.000000000000000000 ) ) ;
#173 = ORIENTED_EDGE ( 'NONE', *, *, #62, .F. ) ;
#174 =( NAMED_UNIT ( * ) PLANE_ANGLE_UNIT ( ) SI_UNIT ( $, .RADIAN. ) );
#175 = CIRCLE ( 'NONE', #44, 4.749999999999997300 ) ;
#176 = DIRECTION ( 'NONE',  ( 0.0000000000000000000, 0.0000000000000000000, 1.000000000000000000 ) ) ;
#177 = FACE_OUTER_BOUND ( 'NONE', #46, .T. ) ;
#178 = ORIENTED_EDGE ( 'NONE', *, *, #316, .T. ) ;
#179 = FILL_AREA_STYLE_COLOUR ( '', #278 ) ;
#180 =( GEOMETRIC_REPRESENTATION_CONTEXT ( 3 ) GLOBAL_UNCERTAINTY_ASSIGNED_CONTEXT ( ( #107 ) ) GLOBAL_UNIT_ASSIGNED_CONTEXT ( ( #305, #108, #232 ) ) REPRESENTATION_CONTEXT ( 'NONE', 'WORKASPACE' ) );
#181 = ORIENTED_EDGE ( 'NONE', *, *, #194, .F. ) ;
#182 = VECTOR ( 'NONE', #348, 1000.000000000000000 ) ;
#183 = PRODUCT_DEFINITION_FORMATION_WITH_SPECIFIED_SOURCE ( 'ANY', '', #97, .NOT_KNOWN. ) ;
#184 = CARTESIAN_POINT ( 'NONE',  ( 5.204748896376250700E-016, -2.500000000000000000, -4.250000000000000000 ) ) ;
#185 = COLOUR_RGB ( '',1.000000000000000000, 0.9490196078431372100, 0.9098039215686274400 ) ;
#186 = AXIS2_PLACEMENT_3D ( 'NONE', #343, #2, #100 ) ;
#187 = AXIS2_PLACEMENT_3D ( 'NONE', #326, #200, #49 ) ;
#188 = DIRECTION ( 'NONE',  ( -1.000000000000000000, 0.0000000000000000000, -0.0000000000000000000 ) ) ;
#189 = ORIENTED_EDGE ( 'NONE', *, *, #30, .F. ) ;
#190 = VECTOR ( 'NONE', #152, 1000.000000000000000 ) ;
#191 = APPLICATION_PROTOCOL_DEFINITION ( 'draft international standard', 'automotive_design', 1998, #249 ) ;
#192 = CARTESIAN_POINT ( 'NONE',  ( 0.0000000000000000000, -2.500000000000000000, 0.0000000000000000000 ) ) ;
#193 = CONICAL_SURFACE ( 'NONE', #186, 4.750000000000008000, 0.7853981633974473900 ) ;
#194 = EDGE_CURVE ( 'NONE', #363, #207, #248, .T. ) ;
#195 = ORIENTED_EDGE ( 'NONE', *, *, #5, .T. ) ;
#196 = LINE ( 'NONE', #115, #324 ) ;
#197 = ORIENTED_EDGE ( 'NONE', *, *, #12, .F. ) ;
#198 = AXIS2_PLACEMENT_3D ( 'NONE', #86, #391, #255 ) ;
#199 =( NAMED_UNIT ( * ) SI_UNIT ( $, .STERADIAN. ) SOLID_ANGLE_UNIT ( ) );
#200 = DIRECTION ( 'NONE',  ( -0.0000000000000000000, -1.000000000000000000, -0.0000000000000000000 ) ) ;
#201 = ORIENTED_EDGE ( 'NONE', *, *, #214, .F. ) ;
#202 = PRODUCT_DEFINITION ( 'UNKNOWN', '', #183, #312 ) ;
#203 = PRODUCT_DEFINITION_SHAPE ( 'NONE', 'NONE',  #202 ) ;
#204 = SURFACE_STYLE_USAGE ( .BOTH. , #263 ) ;
#205 = EDGE_LOOP ( 'NONE', ( #362, #116 ) ) ;
#206 = CARTESIAN_POINT ( 'NONE',  ( -8.000000000000000000, -2.500000000000000000, -8.000000000000000000 ) ) ;
#207 = VERTEX_POINT ( 'NONE', #237 ) ;
#208 = FACE_OUTER_BOUND ( 'NONE', #72, .T. ) ;
#209 = LINE ( 'NONE', #165, #78 ) ;
#210 = EDGE_LOOP ( 'NONE', ( #226, #173, #403, #197 ) ) ;
#211 = VERTEX_POINT ( 'NONE', #96 ) ;
#212 = CARTESIAN_POINT ( 'NONE',  ( -8.000000000000000000, 2.500000000000000000, -8.000000000000000000 ) ) ;
#213 = PRESENTATION_STYLE_ASSIGNMENT (( #51 ) ) ;
#214 = EDGE_CURVE ( 'NONE', #211, #306, #21, .T. ) ;
#215 = DIRECTION ( 'NONE',  ( -1.000000000000000000, -0.0000000000000000000, -1.084202172485504400E-016 ) ) ;
#216 = ADVANCED_FACE ( 'NONE', ( #61 ), #269, .F. ) ;
#217 = CIRCLE ( 'NONE', #351, 4.750000000000008000 ) ;
#218 = CARTESIAN_POINT ( 'NONE',  ( 0.0000000000000000000, 2.500000000000000000, 4.749999999999997300 ) ) ;
#219 = ADVANCED_FACE ( 'NONE', ( #48 ), #67, .F. ) ;
#220 =( LENGTH_UNIT ( ) NAMED_UNIT ( * ) SI_UNIT ( .MILLI., .METRE. ) );
#221 = ORIENTED_EDGE ( 'NONE', *, *, #34, .F. ) ;
#222 = DIRECTION ( 'NONE',  ( -0.0000000000000000000, -1.000000000000000000, -0.0000000000000000000 ) ) ;
#223 = MECHANICAL_DESIGN_GEOMETRIC_PRESENTATION_REPRESENTATION (  '', ( #10 ), #272 ) ;
#224 = CARTESIAN_POINT ( 'NONE',  ( 8.000000000000000000, 2.500000000000000000, 8.000000000000000000 ) ) ;
#225 = DIRECTION ( 'NONE',  ( -0.0000000000000000000, 1.000000000000000000, -0.0000000000000000000 ) ) ;
#226 = ORIENTED_EDGE ( 'NONE', *, *, #375, .F. ) ;
#227 = CARTESIAN_POINT ( 'NONE',  ( 5.817072295949924500E-016, 2.500000000000000000, -4.749999999999997300 ) ) ;
#228 = CARTESIAN_POINT ( 'NONE',  ( 5.204748896376250700E-016, -1.999999999999991800, -4.250000000000000000 ) ) ;
#229 = UNCERTAINTY_MEASURE_WITH_UNIT (LENGTH_MEASURE( 1.000000000000000100E-005 ), #243, 'distance_accuracy_value', 'NONE');
#230 = CONICAL_SURFACE ( 'NONE', #25, 4.750000000000008000, 0.7853981633974473900 ) ;
#231 = UNCERTAINTY_MEASURE_WITH_UNIT (LENGTH_MEASURE( 1.000000000000000100E-005 ), #220, 'distance_accuracy_value', 'NONE');
#232 =( NAMED_UNIT ( * ) SI_UNIT ( $, .STERADIAN. ) SOLID_ANGLE_UNIT ( ) );
#233 = ORIENTED_EDGE ( 'NONE', *, *, #383, .T. ) ;
#234 = ORIENTED_EDGE ( 'NONE', *, *, #39, .T. ) ;
#235 = DIRECTION ( 'NONE',  ( 0.0000000000000000000, 0.0000000000000000000, 1.000000000000000000 ) ) ;
#236 =( NAMED_UNIT ( * ) SI_UNIT ( $, .STERADIAN. ) SOLID_ANGLE_UNIT ( ) );
#237 = CARTESIAN_POINT ( 'NONE',  ( 8.000000000000000000, 2.500000000000000000, -7.999999999999998200 ) ) ;
#238 = ORIENTED_EDGE ( 'NONE', *, *, #52, .T. ) ;
#239 = ORIENTED_EDGE ( 'NONE', *, *, #39, .F. ) ;
#240 = SURFACE_STYLE_USAGE ( .BOTH. , #379 ) ;
#241 = ORIENTED_EDGE ( 'NONE', *, *, #328, .F. ) ;
#242 = DIRECTION ( 'NONE',  ( 0.0000000000000000000, 0.0000000000000000000, 1.000000000000000000 ) ) ;
#243 =( LENGTH_UNIT ( ) NAMED_UNIT ( * ) SI_UNIT ( .MILLI., .METRE. ) );
#244 = LINE ( 'NONE', #382, #190 ) ;
#245 = CARTESIAN_POINT ( 'NONE',  ( 0.0000000000000000000, 0.0000000000000000000, 0.0000000000000000000 ) ) ;
#246 = VERTEX_POINT ( 'NONE', #336 ) ;
#247 =( NAMED_UNIT ( * ) SI_UNIT ( $, .STERADIAN. ) SOLID_ANGLE_UNIT ( ) );
#248 = LINE ( 'NONE', #92, #8 ) ;
#249 = APPLICATION_CONTEXT ( 'automotive_design' ) ;
#250 = ADVANCED_FACE ( 'NONE', ( #352, #260 ), #359, .T. ) ;
#251 =( GEOMETRIC_REPRESENTATION_CONTEXT ( 3 ) GLOBAL_UNCERTAINTY_ASSIGNED_CONTEXT ( ( #229 ) ) GLOBAL_UNIT_ASSIGNED_CONTEXT ( ( #243, #174, #155 ) ) REPRESENTATION_CONTEXT ( 'NONE', 'WORKASPACE' ) );
#252 = VERTEX_POINT ( 'NONE', #218 ) ;
#253 = DIRECTION ( 'NONE',  ( 0.0000000000000000000, 0.0000000000000000000, -1.000000000000000000 ) ) ;
#254 = LINE ( 'NONE', #184, #373 ) ;
#255 = DIRECTION ( 'NONE',  ( 0.0000000000000000000, 0.0000000000000000000, 1.000000000000000000 ) ) ;
#256 = ADVANCED_FACE ( 'NONE', ( #93 ), #77, .F. ) ;
#257 = PLANE ( 'NONE',  #365 ) ;
#258 = ORIENTED_EDGE ( 'NONE', *, *, #328, .T. ) ;
#259 = DIRECTION ( 'NONE',  ( 0.0000000000000000000, -0.7071067811865482400, -0.7071067811865469100 ) ) ;
#260 = FACE_OUTER_BOUND ( 'NONE', #301, .T. ) ;
#261 = DIRECTION ( 'NONE',  ( -1.000000000000000000, 0.0000000000000000000, 0.0000000000000000000 ) ) ;
#262 = ADVANCED_FACE ( 'NONE', ( #102 ), #193, .F. ) ;
#263 = SURFACE_SIDE_STYLE ('',( #140 ) ) ;
#264 = CARTESIAN_POINT ( 'NONE',  ( -7.999999999999998200, 2.500000000000000000, 8.000000000000000000 ) ) ;
#265 = DIRECTION ( 'NONE',  ( 0.0000000000000000000, 0.0000000000000000000, 1.000000000000000000 ) ) ;
#266 = ORIENTED_EDGE ( 'NONE', *, *, #16, .F. ) ;
#267 = EDGE_LOOP ( 'NONE', ( #315, #381, #323, #32 ) ) ;
#268 = PRESENTATION_LAYER_ASSIGNMENT (  '', '', ( #355 ) ) ;
#269 = CYLINDRICAL_SURFACE ( 'NONE', #87, 4.250000000000000000 ) ;
#270 = DIRECTION ( 'NONE',  ( 1.000000000000000000, 0.0000000000000000000, 1.084202172485504400E-016 ) ) ;
#271 = PRESENTATION_STYLE_ASSIGNMENT (( #204 ) ) ;
#272 =( GEOMETRIC_REPRESENTATION_CONTEXT ( 3 ) GLOBAL_UNCERTAINTY_ASSIGNED_CONTEXT ( ( #231 ) ) GLOBAL_UNIT_ASSIGNED_CONTEXT ( ( #220, #57, #199 ) ) REPRESENTATION_CONTEXT ( 'NONE', 'WORKASPACE' ) );
#273 = PLANE ( 'NONE',  #290 ) ;
#274 = EDGE_LOOP ( 'NONE', ( #233, #104 ) ) ;
#275 = ORIENTED_EDGE ( 'NONE', *, *, #4, .T. ) ;
#276 = LINE ( 'NONE', #374, #55 ) ;
#277 = MANIFOLD_SOLID_BREP ( 'Ôàñêà1', #35 ) ;
#278 = COLOUR_RGB ( '',0.6980392156862744700, 0.6980392156862744700, 0.6980392156862744700 ) ;
#279 = CARTESIAN_POINT ( 'NONE',  ( -7.999999999999998200, 2.500000000000000000, 8.000000000000000000 ) ) ;
#280 = ORIENTED_EDGE ( 'NONE', *, *, #142, .T. ) ;
#281 = FILL_AREA_STYLE_COLOUR ( '', #369 ) ;
#282 = PRESENTATION_STYLE_ASSIGNMENT (( #240 ) ) ;
#283 = ORIENTED_EDGE ( 'NONE', *, *, #106, .T. ) ;
#284 = CARTESIAN_POINT ( 'NONE',  ( 0.0000000000000000000, -2.500000000000000000, 0.0000000000000000000 ) ) ;
#285 = LINE ( 'NONE', #149, #395 ) ;
#286 = STYLED_ITEM ( 'NONE', ( #213 ), #277 ) ;
#287 = LINE ( 'NONE', #357, #159 ) ;
#288 = ORIENTED_EDGE ( 'NONE', *, *, #52, .F. ) ;
#289 = DIRECTION ( 'NONE',  ( 0.0000000000000000000, 0.0000000000000000000, 1.000000000000000000 ) ) ;
#290 = AXIS2_PLACEMENT_3D ( 'NONE', #171, #293, #314 ) ;
#291 = PRESENTATION_LAYER_ASSIGNMENT (  '', '', ( #10 ) ) ;
#292 = COLOUR_RGB ( '',0.6980392156862744700, 0.6980392156862744700, 0.6980392156862744700 ) ;
#293 = DIRECTION ( 'NONE',  ( 0.0000000000000000000, 1.000000000000000000, 0.0000000000000000000 ) ) ;
#294 = CARTESIAN_POINT ( 'NONE',  ( 0.0000000000000000000, -2.500000000000000000, 0.0000000000000000000 ) ) ;
#295 = VERTEX_POINT ( 'NONE', #264 ) ;
#296 = PRESENTATION_LAYER_ASSIGNMENT (  '', '', ( #153 ) ) ;
#297 = ORIENTED_EDGE ( 'NONE', *, *, #16, .T. ) ;
#298 = ORIENTED_EDGE ( 'NONE', *, *, #142, .F. ) ;
#299 = CARTESIAN_POINT ( 'NONE',  ( 0.0000000000000000000, 2.000000000000002200, 4.250000000000000000 ) ) ;
#300 = DIRECTION ( 'NONE',  ( -0.0000000000000000000, -1.000000000000000000, -0.0000000000000000000 ) ) ;
#301 = EDGE_LOOP ( 'NONE', ( #329, #234, #83, #178 ) ) ;
#302 = EDGE_LOOP ( 'NONE', ( #238, #298, #181, #195 ) ) ;
#303 =( GEOMETRIC_REPRESENTATION_CONTEXT ( 3 ) GLOBAL_UNCERTAINTY_ASSIGNED_CONTEXT ( ( #151 ) ) GLOBAL_UNIT_ASSIGNED_CONTEXT ( ( #66, #19, #236 ) ) REPRESENTATION_CONTEXT ( 'NONE', 'WORKASPACE' ) );
#304 = FACE_OUTER_BOUND ( 'NONE', #98, .T. ) ;
#305 =( LENGTH_UNIT ( ) NAMED_UNIT ( * ) SI_UNIT ( .MILLI., .METRE. ) );
#306 = VERTEX_POINT ( 'NONE', #47 ) ;
#307 = DIRECTION ( 'NONE',  ( -1.000000000000000000, -0.0000000000000000000, -1.084202172485504400E-016 ) ) ;
#308 = CARTESIAN_POINT ( 'NONE',  ( 8.000000000000000000, 2.500000000000000000, -7.999999999999998200 ) ) ;
#309 = CIRCLE ( 'NONE', #313, 4.750000000000008000 ) ;
#310 = EDGE_LOOP ( 'NONE', ( #169, #367, #84, #275 ) ) ;
#311 = VERTEX_POINT ( 'NONE', #364 ) ;
#312 = PRODUCT_DEFINITION_CONTEXT ( 'detailed design', #249, 'design' ) ;
#313 = AXIS2_PLACEMENT_3D ( 'NONE', #294, #344, #265 ) ;
#314 = DIRECTION ( 'NONE',  ( 0.0000000000000000000, -0.0000000000000000000, 1.000000000000000000 ) ) ;
#315 = ORIENTED_EDGE ( 'NONE', *, *, #325, .F. ) ;
#316 = EDGE_CURVE ( 'NONE', #207, #370, #389, .T. ) ;
#317 = CARTESIAN_POINT ( 'NONE',  ( 5.204748896376250700E-016, 2.000000000000002200, -4.250000000000000000 ) ) ;
#318 = EDGE_LOOP ( 'NONE', ( #283, #117, #239, #361 ) ) ;
#319 = CARTESIAN_POINT ( 'NONE',  ( 0.0000000000000000000, 2.000000000000002200, 0.0000000000000000000 ) ) ;
#320 = CARTESIAN_POINT ( 'NONE',  ( 8.000000000000000000, 2.500000000000000000, 8.000000000000000000 ) ) ;
#321 = ADVANCED_BREP_SHAPE_REPRESENTATION ( 'SNSD.30.51.34. Tº¿ð¨¹ ÿð÷þòvù ¦10 ÿð÷ 10(C00)', ( #277, #24 ), #180 ) ;
#322 = ORIENTED_EDGE ( 'NONE', *, *, #4, .F. ) ;
#323 = ORIENTED_EDGE ( 'NONE', *, *, #383, .F. ) ;
#324 = VECTOR ( 'NONE', #386, 1000.000000000000000 ) ;
#325 = EDGE_CURVE ( 'NONE', #89, #333, #368, .T. ) ;
#326 = CARTESIAN_POINT ( 'NONE',  ( 0.0000000000000000000, -1.999999999999991800, 0.0000000000000000000 ) ) ;
#327 = CARTESIAN_POINT ( 'NONE',  ( 0.0000000000000000000, -1.999999999999991800, 0.0000000000000000000 ) ) ;
#328 = EDGE_CURVE ( 'NONE', #18, #246, #79, .T. ) ;
#329 = ORIENTED_EDGE ( 'NONE', *, *, #58, .T. ) ;
#330 = AXIS2_PLACEMENT_3D ( 'NONE', #141, #119, #188 ) ;
#331 = UNCERTAINTY_MEASURE_WITH_UNIT (LENGTH_MEASURE( 1.000000000000000100E-005 ), #164, 'distance_accuracy_value', 'NONE');
#332 = CARTESIAN_POINT ( 'NONE',  ( 0.0000000000000000000, 2.500000000000000000, 0.0000000000000000000 ) ) ;
#333 = VERTEX_POINT ( 'NONE', #228 ) ;
#334 = DIRECTION ( 'NONE',  ( -0.0000000000000000000, -1.000000000000000000, -0.0000000000000000000 ) ) ;
#335 = DIRECTION ( 'NONE',  ( -0.0000000000000000000, -1.000000000000000000, -0.0000000000000000000 ) ) ;
#336 = CARTESIAN_POINT ( 'NONE',  ( 0.0000000000000000000, 2.000000000000002200, 4.250000000000000000 ) ) ;
#337 = ORIENTED_EDGE ( 'NONE', *, *, #124, .F. ) ;
#338 = AXIS2_PLACEMENT_3D ( 'NONE', #69, #9, #112 ) ;
#339 = FILL_AREA_STYLE ('',( #281 ) ) ;
#340 = SHAPE_DEFINITION_REPRESENTATION ( #203, #321 ) ;
#341 = CARTESIAN_POINT ( 'NONE',  ( -8.000000000000000000, 2.500000000000000000, -8.000000000000000000 ) ) ;
#342 = CARTESIAN_POINT ( 'NONE',  ( 5.204748896376250700E-016, 2.000000000000002200, -4.250000000000000000 ) ) ;
#343 = CARTESIAN_POINT ( 'NONE',  ( 0.0000000000000000000, -2.500000000000000000, 0.0000000000000000000 ) ) ;
#344 = DIRECTION ( 'NONE',  ( 0.0000000000000000000, 1.000000000000000000, 0.0000000000000000000 ) ) ;
#345 =( GEOMETRIC_REPRESENTATION_CONTEXT ( 3 ) GLOBAL_UNCERTAINTY_ASSIGNED_CONTEXT ( ( #331 ) ) GLOBAL_UNIT_ASSIGNED_CONTEXT ( ( #164, #54, #247 ) ) REPRESENTATION_CONTEXT ( 'NONE', 'WORKASPACE' ) );
#346 = DIRECTION ( 'NONE',  ( 8.659560562354926700E-017, 0.7071067811865482400, -0.7071067811865469100 ) ) ;
#347 = ADVANCED_FACE ( 'NONE', ( #208 ), #118, .F. ) ;
#348 = DIRECTION ( 'NONE',  ( 1.084202172485504400E-016, 0.0000000000000000000, 1.000000000000000000 ) ) ;
#349 = LINE ( 'NONE', #75, #378 ) ;
#350 = EDGE_CURVE ( 'NONE', #246, #252, #385, .T. ) ;
#351 = AXIS2_PLACEMENT_3D ( 'NONE', #356, #80, #172 ) ;
#352 = FACE_BOUND ( 'NONE', #205, .T. ) ;
#353 = SURFACE_STYLE_USAGE ( .BOTH. , #390 ) ;
#354 = ORIENTED_EDGE ( 'NONE', *, *, #162, .F. ) ;
#355 = STYLED_ITEM ( 'NONE', ( #271 ), #321 ) ;
#356 = CARTESIAN_POINT ( 'NONE',  ( 0.0000000000000000000, -2.500000000000000000, 0.0000000000000000000 ) ) ;
#357 = CARTESIAN_POINT ( 'NONE',  ( -7.999999999999998200, 2.500000000000000000, 8.000000000000000000 ) ) ;
#358 = MECHANICAL_DESIGN_GEOMETRIC_PRESENTATION_REPRESENTATION (  '', ( #286 ), #345 ) ;
#359 = PLANE ( 'NONE',  #338 ) ;
#360 = CARTESIAN_POINT ( 'NONE',  ( -7.999999999999998200, -2.500000000000000000, 8.000000000000000000 ) ) ;
#361 = ORIENTED_EDGE ( 'NONE', *, *, #162, .T. ) ;
#362 = ORIENTED_EDGE ( 'NONE', *, *, #166, .T. ) ;
#363 = VERTEX_POINT ( 'NONE', #320 ) ;
#364 = CARTESIAN_POINT ( 'NONE',  ( 8.000000000000000000, -2.500000000000000000, 8.000000000000000000 ) ) ;
#365 = AXIS2_PLACEMENT_3D ( 'NONE', #341, #43, #270 ) ;
#366 = DIRECTION ( 'NONE',  ( 0.0000000000000000000, 0.0000000000000000000, 1.000000000000000000 ) ) ;
#367 = ORIENTED_EDGE ( 'NONE', *, *, #62, .T. ) ;
#368 = CIRCLE ( 'NONE', #187, 4.250000000000000000 ) ;
#369 = COLOUR_RGB ( '',1.000000000000000000, 0.9490196078431372100, 0.9098039215686274400 ) ;
#370 = VERTEX_POINT ( 'NONE', #161 ) ;
#371 = VECTOR ( 'NONE', #346, 999.9999999999998900 ) ;
#372 = CARTESIAN_POINT ( 'NONE',  ( 0.0000000000000000000, -2.500000000000000000, -4.750000000000008000 ) ) ;
#373 = VECTOR ( 'NONE', #157, 1000.000000000000000 ) ;
#374 = CARTESIAN_POINT ( 'NONE',  ( -8.000000000000000000, 2.500000000000000000, -8.000000000000000000 ) ) ;
#375 = EDGE_CURVE ( 'NONE', #89, #7, #209, .T. ) ;
#376 = ORIENTED_EDGE ( 'NONE', *, *, #166, .F. ) ;
#377 = PRODUCT_CONTEXT ( 'NONE', #91, 'mechanical' ) ;
#378 = VECTOR ( 'NONE', #259, 999.9999999999998900 ) ;
#379 = SURFACE_SIDE_STYLE ('',( #68 ) ) ;
#380 = FACE_OUTER_BOUND ( 'NONE', #318, .T. ) ;
#381 = ORIENTED_EDGE ( 'NONE', *, *, #375, .T. ) ;
#382 = CARTESIAN_POINT ( 'NONE',  ( -8.000000000000000000, -2.500000000000000000, -8.000000000000000000 ) ) ;
#383 = EDGE_CURVE ( 'NONE', #405, #7, #217, .T. ) ;
#384 = AXIS2_PLACEMENT_3D ( 'NONE', #11, #404, #131 ) ;
#385 = LINE ( 'NONE', #299, #150 ) ;
#386 = DIRECTION ( 'NONE',  ( -0.0000000000000000000, 1.000000000000000000, -0.0000000000000000000 ) ) ;
#387 = CIRCLE ( 'NONE', #198, 4.749999999999997300 ) ;
#388 = LINE ( 'NONE', #317, #371 ) ;
#389 = LINE ( 'NONE', #212, #156 ) ;
#390 = SURFACE_SIDE_STYLE ('',( #28 ) ) ;
#391 = DIRECTION ( 'NONE',  ( -0.0000000000000000000, -1.000000000000000000, -0.0000000000000000000 ) ) ;
#392 = EDGE_LOOP ( 'NONE', ( #297, #354, #120, #56 ) ) ;
#393 = AXIS2_PLACEMENT_3D ( 'NONE', #137, #400, #168 ) ;
#394 = DIRECTION ( 'NONE',  ( 0.0000000000000000000, 0.0000000000000000000, 1.000000000000000000 ) ) ;
#395 = VECTOR ( 'NONE', #123, 1000.000000000000000 ) ;
#396 = CIRCLE ( 'NONE', #145, 4.250000000000000000 ) ;
#397 = ORIENTED_EDGE ( 'NONE', *, *, #350, .T. ) ;
#398 = FILL_AREA_STYLE ('',( #38 ) ) ;
#399 = DIRECTION ( 'NONE',  ( 1.000000000000000000, 0.0000000000000000000, 0.0000000000000000000 ) ) ;
#400 = DIRECTION ( 'NONE',  ( 0.0000000000000000000, 1.000000000000000000, 0.0000000000000000000 ) ) ;
#401 = ORIENTED_EDGE ( 'NONE', *, *, #350, .F. ) ;
#402 = LINE ( 'NONE', #308, #95 ) ;
#403 = ORIENTED_EDGE ( 'NONE', *, *, #105, .T. ) ;
#404 = DIRECTION ( 'NONE',  ( 1.000000000000000000, 0.0000000000000000000, -1.084202172485504400E-016 ) ) ;
#405 = VERTEX_POINT ( 'NONE', #372 ) ;
#406 = ADVANCED_FACE ( 'NONE', ( #1 ), #33, .F. ) ;
ENDSEC;
END-ISO-10303-21;
