ISO-10303-21;
HEADER;
FILE_DESCRIPTION (( 'STEP AP214' ),
    '1' );
FILE_NAME ('44PL Òðóáà ïëàòôîðìû 40õ40.STEP',
    '2019-11-13T09:17:33',
    ( 'Windows User' ),
    ( '' ),
    'SwSTEP 2.0',
    'SolidWorks 2019',
    '' );
FILE_SCHEMA (( 'AUTOMOTIVE_DESIGN' ));
ENDSEC;

DATA;
#1 = DIRECTION ( 'NONE',  ( 0.0000000000000000000, 0.0000000000000000000, 1.000000000000000000 ) ) ;
#2 = CARTESIAN_POINT ( 'NONE',  ( 0.0000000000000000000, 0.0000000000000000000, -300.0000000000000000 ) ) ;
#3 = VECTOR ( 'NONE', #1, 1000.000000000000000 ) ;
#4 = CARTESIAN_POINT ( 'NONE',  ( 0.0000000000000000000, 0.0000000000000000000, -300.0000000000000000 ) ) ;
#5 = PRESENTATION_STYLE_ASSIGNMENT (( #171 ) ) ;
#6 = DIRECTION ( 'NONE',  ( 0.0000000000000000000, 0.0000000000000000000, 1.000000000000000000 ) ) ;
#7 = VERTEX_POINT ( 'NONE', #155 ) ;
#8 = ORIENTED_EDGE ( 'NONE', *, *, #37, .T. ) ;
#9 = CIRCLE ( 'NONE', #176, 16.94999999999999929 ) ;
#10 = CARTESIAN_POINT ( 'NONE',  ( 0.0000000000000000000, 0.0000000000000000000, -300.0000000000000000 ) ) ;
#11 = FILL_AREA_STYLE_COLOUR ( '', #76 ) ;
#12 = CARTESIAN_POINT ( 'NONE',  ( 0.0000000000000000000, 0.0000000000000000000, -300.0000000000000000 ) ) ;
#13 = EDGE_LOOP ( 'NONE', ( #138, #43, #192, #214 ) ) ;
#14 = CARTESIAN_POINT ( 'NONE',  ( 0.0000000000000000000, 0.0000000000000000000, 0.0000000000000000000 ) ) ;
#15 = CYLINDRICAL_SURFACE ( 'NONE', #110, 19.80000000000000071 ) ;
#16 =( GEOMETRIC_REPRESENTATION_CONTEXT ( 3 ) GLOBAL_UNCERTAINTY_ASSIGNED_CONTEXT ( ( #230 ) ) GLOBAL_UNIT_ASSIGNED_CONTEXT ( ( #125, #241, #181 ) ) REPRESENTATION_CONTEXT ( 'NONE', 'WORKASPACE' ) );
#17 = PRESENTATION_LAYER_ASSIGNMENT (  '', '', ( #122 ) ) ;
#18 = FILL_AREA_STYLE_COLOUR ( '', #32 ) ;
#19 =( LENGTH_UNIT ( ) NAMED_UNIT ( * ) SI_UNIT ( .MILLI., .METRE. ) );
#20 = CYLINDRICAL_SURFACE ( 'NONE', #133, 16.94999999999999929 ) ;
#21 = EDGE_CURVE ( 'NONE', #229, #41, #61, .T. ) ;
#22 = EDGE_LOOP ( 'NONE', ( #60, #75 ) ) ;
#23 = MANIFOLD_SOLID_BREP ( 'Áîáûøêà-Âûòÿíóòü1', #113 ) ;
#24 = SURFACE_SIDE_STYLE ('',( #118 ) ) ;
#25 = ORIENTED_EDGE ( 'NONE', *, *, #148, .F. ) ;
#26 = ORIENTED_EDGE ( 'NONE', *, *, #210, .F. ) ;
#27 = EDGE_LOOP ( 'NONE', ( #228, #193 ) ) ;
#28 = FILL_AREA_STYLE ('',( #139 ) ) ;
#29 = DIRECTION ( 'NONE',  ( 1.000000000000000000, 0.0000000000000000000, 0.0000000000000000000 ) ) ;
#30 = CARTESIAN_POINT ( 'NONE',  ( 0.0000000000000000000, 0.0000000000000000000, -300.0000000000000000 ) ) ;
#31 = DIRECTION ( 'NONE',  ( 0.0000000000000000000, 0.0000000000000000000, 1.000000000000000000 ) ) ;
#32 = COLOUR_RGB ( '',0.8980392156862745390, 0.9176470588235293713, 0.9294117647058823817 ) ;
#33 = DIRECTION ( 'NONE',  ( 0.0000000000000000000, 0.0000000000000000000, 1.000000000000000000 ) ) ;
#34 = APPLICATION_PROTOCOL_DEFINITION ( 'draft international standard', 'automotive_design', 1998, #219 ) ;
#35 = LINE ( 'NONE', #234, #140 ) ;
#36 = EDGE_LOOP ( 'NONE', ( #174, #190, #211, #25 ) ) ;
#37 = EDGE_CURVE ( 'NONE', #77, #120, #89, .T. ) ;
#38 = PRESENTATION_LAYER_ASSIGNMENT (  '', '', ( #54 ) ) ;
#39 = ORIENTED_EDGE ( 'NONE', *, *, #88, .T. ) ;
#40 = CARTESIAN_POINT ( 'NONE',  ( -19.80000000000000071, 2.424800662311759404E-15, 0.0000000000000000000 ) ) ;
#41 = VERTEX_POINT ( 'NONE', #40 ) ;
#42 = ORIENTED_EDGE ( 'NONE', *, *, #158, .F. ) ;
#43 = ORIENTED_EDGE ( 'NONE', *, *, #51, .T. ) ;
#44 = CARTESIAN_POINT ( 'NONE',  ( 0.0000000000000000000, 0.0000000000000000000, -300.0000000000000000 ) ) ;
#45 = CARTESIAN_POINT ( 'NONE',  ( 0.0000000000000000000, 0.0000000000000000000, -300.0000000000000000 ) ) ;
#46 = VERTEX_POINT ( 'NONE', #189 ) ;
#47 = PRODUCT_RELATED_PRODUCT_CATEGORY ( 'part', '', ( #73 ) ) ;
#48 = DIRECTION ( 'NONE',  ( 1.000000000000000000, 0.0000000000000000000, 0.0000000000000000000 ) ) ;
#49 = AXIS2_PLACEMENT_3D ( 'NONE', #10, #108, #79 ) ;
#50 = AXIS2_PLACEMENT_3D ( 'NONE', #124, #104, #179 ) ;
#51 = EDGE_CURVE ( 'NONE', #120, #7, #100, .T. ) ;
#52 = EDGE_LOOP ( 'NONE', ( #66, #160, #232, #39 ) ) ;
#53 = DIRECTION ( 'NONE',  ( 0.0000000000000000000, 0.0000000000000000000, 1.000000000000000000 ) ) ;
#54 = STYLED_ITEM ( 'NONE', ( #83 ), #115 ) ;
#55 = AXIS2_PLACEMENT_3D ( 'NONE', #233, #33, #63 ) ;
#56 = DIRECTION ( 'NONE',  ( 1.000000000000000000, 0.0000000000000000000, 0.0000000000000000000 ) ) ;
#57 = EDGE_CURVE ( 'NONE', #209, #41, #154, .T. ) ;
#58 = FILL_AREA_STYLE ('',( #159 ) ) ;
#59 = EDGE_LOOP ( 'NONE', ( #78, #26 ) ) ;
#60 = ORIENTED_EDGE ( 'NONE', *, *, #21, .T. ) ;
#61 = CIRCLE ( 'NONE', #186, 19.80000000000000071 ) ;
#62 =( GEOMETRIC_REPRESENTATION_CONTEXT ( 3 ) GLOBAL_UNCERTAINTY_ASSIGNED_CONTEXT ( ( #182 ) ) GLOBAL_UNIT_ASSIGNED_CONTEXT ( ( #226, #102, #134 ) ) REPRESENTATION_CONTEXT ( 'NONE', 'WORKASPACE' ) );
#63 = DIRECTION ( 'NONE',  ( 1.000000000000000000, 0.0000000000000000000, -0.0000000000000000000 ) ) ;
#64 = DIRECTION ( 'NONE',  ( 0.0000000000000000000, 0.0000000000000000000, 1.000000000000000000 ) ) ;
#65 = DIRECTION ( 'NONE',  ( 0.0000000000000000000, 0.0000000000000000000, 1.000000000000000000 ) ) ;
#66 = ORIENTED_EDGE ( 'NONE', *, *, #51, .F. ) ;
#67 = DIRECTION ( 'NONE',  ( 1.000000000000000000, 0.0000000000000000000, 0.0000000000000000000 ) ) ;
#68 = STYLED_ITEM ( 'NONE', ( #220 ), #222 ) ;
#69 = FACE_BOUND ( 'NONE', #72, .T. ) ;
#70 = DIRECTION ( 'NONE',  ( 0.0000000000000000000, 0.0000000000000000000, 1.000000000000000000 ) ) ;
#71 = ADVANCED_FACE ( 'NONE', ( #69, #215 ), #162, .F. ) ;
#72 = EDGE_LOOP ( 'NONE', ( #8, #188 ) ) ;
#73 = PRODUCT ( '44PL Òðóáà ïëàòôîðìû 40õ40', '44PL Òðóáà ïëàòôîðìû 40õ40', '', ( #105 ) ) ;
#74 = ADVANCED_FACE ( 'NONE', ( #198 ), #196, .T. ) ;
#75 = ORIENTED_EDGE ( 'NONE', *, *, #148, .T. ) ;
#76 = COLOUR_RGB ( '',0.8980392156862745390, 0.9176470588235293713, 0.9294117647058823817 ) ;
#77 = VERTEX_POINT ( 'NONE', #185 ) ;
#78 = ORIENTED_EDGE ( 'NONE', *, *, #167, .F. ) ;
#79 = DIRECTION ( 'NONE',  ( 1.000000000000000000, 0.0000000000000000000, -0.0000000000000000000 ) ) ;
#80 = UNCERTAINTY_MEASURE_WITH_UNIT (LENGTH_MEASURE( 1.000000000000000082E-05 ), #204, 'distance_accuracy_value', 'NONE');
#81 = CIRCLE ( 'NONE', #116, 16.94999999999999929 ) ;
#82 = AXIS2_PLACEMENT_3D ( 'NONE', #30, #103, #203 ) ;
#83 = PRESENTATION_STYLE_ASSIGNMENT (( #184 ) ) ;
#84 = DIRECTION ( 'NONE',  ( 0.0000000000000000000, 0.0000000000000000000, 1.000000000000000000 ) ) ;
#85 = DIRECTION ( 'NONE',  ( 0.0000000000000000000, 0.0000000000000000000, 1.000000000000000000 ) ) ;
#86 = ORIENTED_EDGE ( 'NONE', *, *, #167, .T. ) ;
#87 = CARTESIAN_POINT ( 'NONE',  ( 0.0000000000000000000, 0.0000000000000000000, -300.0000000000000000 ) ) ;
#88 = EDGE_CURVE ( 'NONE', #46, #7, #81, .T. ) ;
#89 = CIRCLE ( 'NONE', #223, 16.94999999999999929 ) ;
#90 = AXIS2_PLACEMENT_3D ( 'NONE', #111, #206, #91 ) ;
#91 = DIRECTION ( 'NONE',  ( 1.000000000000000000, 0.0000000000000000000, 0.0000000000000000000 ) ) ;
#92 = UNCERTAINTY_MEASURE_WITH_UNIT (LENGTH_MEASURE( 1.000000000000000082E-05 ), #19, 'distance_accuracy_value', 'NONE');
#93 = LINE ( 'NONE', #95, #3 ) ;
#94 = MECHANICAL_DESIGN_GEOMETRIC_PRESENTATION_REPRESENTATION (  '', ( #54 ), #16 ) ;
#95 = CARTESIAN_POINT ( 'NONE',  ( 16.94999999999999929, 0.0000000000000000000, -300.0000000000000000 ) ) ;
#96 = DIRECTION ( 'NONE',  ( 1.000000000000000000, 0.0000000000000000000, 0.0000000000000000000 ) ) ;
#97 = SURFACE_STYLE_USAGE ( .BOTH. , #24 ) ;
#98 = CIRCLE ( 'NONE', #50, 19.80000000000000071 ) ;
#99 = SURFACE_SIDE_STYLE ('',( #212 ) ) ;
#100 = LINE ( 'NONE', #172, #144 ) ;
#101 = APPLICATION_PROTOCOL_DEFINITION ( 'draft international standard', 'automotive_design', 1998, #150 ) ;
#102 =( NAMED_UNIT ( * ) PLANE_ANGLE_UNIT ( ) SI_UNIT ( $, .RADIAN. ) );
#103 = DIRECTION ( 'NONE',  ( 0.0000000000000000000, 0.0000000000000000000, 1.000000000000000000 ) ) ;
#104 = DIRECTION ( 'NONE',  ( 0.0000000000000000000, 0.0000000000000000000, 1.000000000000000000 ) ) ;
#105 = PRODUCT_CONTEXT ( 'NONE', #150, 'mechanical' ) ;
#106 = CARTESIAN_POINT ( 'NONE',  ( 19.80000000000000071, 0.0000000000000000000, -300.0000000000000000 ) ) ;
#107 = PRODUCT_DEFINITION_CONTEXT ( 'detailed design', #219, 'design' ) ;
#108 = DIRECTION ( 'NONE',  ( 0.0000000000000000000, 0.0000000000000000000, 1.000000000000000000 ) ) ;
#109 = SURFACE_STYLE_USAGE ( .BOTH. , #243 ) ;
#110 = AXIS2_PLACEMENT_3D ( 'NONE', #44, #128, #48 ) ;
#111 = CARTESIAN_POINT ( 'NONE',  ( 0.0000000000000000000, 0.0000000000000000000, -300.0000000000000000 ) ) ;
#112 = CARTESIAN_POINT ( 'NONE',  ( 0.0000000000000000000, 0.0000000000000000000, 0.0000000000000000000 ) ) ;
#113 = CLOSED_SHELL ( 'NONE', ( #222, #126, #74, #71, #131, #115 ) ) ;
#114 = PRODUCT_DEFINITION_FORMATION_WITH_SPECIFIED_SOURCE ( 'ANY', '', #73, .NOT_KNOWN. ) ;
#115 = ADVANCED_FACE ( 'NONE', ( #141 ), #218, .F. ) ;
#116 = AXIS2_PLACEMENT_3D ( 'NONE', #14, #31, #146 ) ;
#117 = CIRCLE ( 'NONE', #240, 16.94999999999999929 ) ;
#118 = SURFACE_STYLE_FILL_AREA ( #28 ) ;
#119 = ORIENTED_EDGE ( 'NONE', *, *, #21, .F. ) ;
#120 = VERTEX_POINT ( 'NONE', #145 ) ;
#121 = AXIS2_PLACEMENT_3D ( 'NONE', #45, #65, #217 ) ;
#122 = STYLED_ITEM ( 'NONE', ( #5 ), #130 ) ;
#123 = CARTESIAN_POINT ( 'NONE',  ( 0.0000000000000000000, 0.0000000000000000000, 0.0000000000000000000 ) ) ;
#124 = CARTESIAN_POINT ( 'NONE',  ( 0.0000000000000000000, 0.0000000000000000000, 0.0000000000000000000 ) ) ;
#125 =( LENGTH_UNIT ( ) NAMED_UNIT ( * ) SI_UNIT ( .MILLI., .METRE. ) );
#126 = ADVANCED_FACE ( 'NONE', ( #164 ), #15, .T. ) ;
#127 = PLANE ( 'NONE',  #55 ) ;
#128 = DIRECTION ( 'NONE',  ( 0.0000000000000000000, 0.0000000000000000000, 1.000000000000000000 ) ) ;
#129 = AXIS2_PLACEMENT_3D ( 'NONE', #231, #84, #29 ) ;
#130 = ADVANCED_BREP_SHAPE_REPRESENTATION ( '44PL T¨ºñð ÿûðª¯þ¨üv 40¿40', ( #23, #129 ), #224 ) ;
#131 = ADVANCED_FACE ( 'NONE', ( #178, #238 ), #127, .T. ) ;
#132 =( NAMED_UNIT ( * ) PLANE_ANGLE_UNIT ( ) SI_UNIT ( $, .RADIAN. ) );
#133 = AXIS2_PLACEMENT_3D ( 'NONE', #2, #70, #149 ) ;
#134 =( NAMED_UNIT ( * ) SI_UNIT ( $, .STERADIAN. ) SOLID_ANGLE_UNIT ( ) );
#135 = DIRECTION ( 'NONE',  ( 0.0000000000000000000, 0.0000000000000000000, 1.000000000000000000 ) ) ;
#136 = STYLED_ITEM ( 'NONE', ( #157 ), #23 ) ;
#137 = CIRCLE ( 'NONE', #90, 19.80000000000000071 ) ;
#138 = ORIENTED_EDGE ( 'NONE', *, *, #191, .F. ) ;
#139 = FILL_AREA_STYLE_COLOUR ( '', #239 ) ;
#140 = VECTOR ( 'NONE', #64, 1000.000000000000000 ) ;
#141 = FACE_OUTER_BOUND ( 'NONE', #52, .T. ) ;
#142 = ORIENTED_EDGE ( 'NONE', *, *, #57, .T. ) ;
#143 = SURFACE_SIDE_STYLE ('',( #200 ) ) ;
#144 = VECTOR ( 'NONE', #6, 1000.000000000000000 ) ;
#145 = CARTESIAN_POINT ( 'NONE',  ( -16.94999999999999929, 2.075776324554763601E-15, -300.0000000000000000 ) ) ;
#146 = DIRECTION ( 'NONE',  ( 1.000000000000000000, 0.0000000000000000000, 0.0000000000000000000 ) ) ;
#147 = FILL_AREA_STYLE ('',( #18 ) ) ;
#148 = EDGE_CURVE ( 'NONE', #41, #229, #98, .T. ) ;
#149 = DIRECTION ( 'NONE',  ( 1.000000000000000000, 0.0000000000000000000, 0.0000000000000000000 ) ) ;
#150 = APPLICATION_CONTEXT ( 'automotive_design' ) ;
#151 = MECHANICAL_DESIGN_GEOMETRIC_PRESENTATION_REPRESENTATION (  '', ( #122 ), #62 ) ;
#152 =( NAMED_UNIT ( * ) SI_UNIT ( $, .STERADIAN. ) SOLID_ANGLE_UNIT ( ) );
#153 =( NAMED_UNIT ( * ) PLANE_ANGLE_UNIT ( ) SI_UNIT ( $, .RADIAN. ) );
#154 = LINE ( 'NONE', #227, #163 ) ;
#155 = CARTESIAN_POINT ( 'NONE',  ( -16.94999999999999929, 2.075776324554763601E-15, 0.0000000000000000000 ) ) ;
#156 = PRESENTATION_LAYER_ASSIGNMENT (  '', '', ( #136 ) ) ;
#157 = PRESENTATION_STYLE_ASSIGNMENT (( #97 ) ) ;
#158 = EDGE_CURVE ( 'NONE', #183, #229, #35, .T. ) ;
#159 = FILL_AREA_STYLE_COLOUR ( '', #195 ) ;
#160 = ORIENTED_EDGE ( 'NONE', *, *, #37, .F. ) ;
#161 = UNCERTAINTY_MEASURE_WITH_UNIT (LENGTH_MEASURE( 1.000000000000000082E-05 ), #177, 'distance_accuracy_value', 'NONE');
#162 = PLANE ( 'NONE',  #49 ) ;
#163 = VECTOR ( 'NONE', #53, 1000.000000000000000 ) ;
#164 = FACE_OUTER_BOUND ( 'NONE', #201, .T. ) ;
#165 = DIRECTION ( 'NONE',  ( 0.0000000000000000000, 0.0000000000000000000, 1.000000000000000000 ) ) ;
#166 = MECHANICAL_DESIGN_GEOMETRIC_PRESENTATION_REPRESENTATION (  '', ( #68 ), #205 ) ;
#167 = EDGE_CURVE ( 'NONE', #183, #209, #180, .T. ) ;
#168 = SURFACE_STYLE_FILL_AREA ( #147 ) ;
#169 = FACE_OUTER_BOUND ( 'NONE', #13, .T. ) ;
#170 = PRESENTATION_LAYER_ASSIGNMENT (  '', '', ( #68 ) ) ;
#171 = SURFACE_STYLE_USAGE ( .BOTH. , #99 ) ;
#172 = CARTESIAN_POINT ( 'NONE',  ( -16.94999999999999929, 2.075776324554763601E-15, -300.0000000000000000 ) ) ;
#173 =( NAMED_UNIT ( * ) SI_UNIT ( $, .STERADIAN. ) SOLID_ANGLE_UNIT ( ) );
#174 = ORIENTED_EDGE ( 'NONE', *, *, #57, .F. ) ;
#175 = DIRECTION ( 'NONE',  ( 0.0000000000000000000, 0.0000000000000000000, 1.000000000000000000 ) ) ;
#176 = AXIS2_PLACEMENT_3D ( 'NONE', #112, #187, #96 ) ;
#177 =( LENGTH_UNIT ( ) NAMED_UNIT ( * ) SI_UNIT ( .MILLI., .METRE. ) );
#178 = FACE_BOUND ( 'NONE', #27, .T. ) ;
#179 = DIRECTION ( 'NONE',  ( 1.000000000000000000, 0.0000000000000000000, 0.0000000000000000000 ) ) ;
#180 = CIRCLE ( 'NONE', #244, 19.80000000000000071 ) ;
#181 =( NAMED_UNIT ( * ) SI_UNIT ( $, .STERADIAN. ) SOLID_ANGLE_UNIT ( ) );
#182 = UNCERTAINTY_MEASURE_WITH_UNIT (LENGTH_MEASURE( 1.000000000000000082E-05 ), #226, 'distance_accuracy_value', 'NONE');
#183 = VERTEX_POINT ( 'NONE', #106 ) ;
#184 = SURFACE_STYLE_USAGE ( .BOTH. , #143 ) ;
#185 = CARTESIAN_POINT ( 'NONE',  ( 16.94999999999999929, 0.0000000000000000000, -300.0000000000000000 ) ) ;
#186 = AXIS2_PLACEMENT_3D ( 'NONE', #123, #175, #56 ) ;
#187 = DIRECTION ( 'NONE',  ( 0.0000000000000000000, 0.0000000000000000000, 1.000000000000000000 ) ) ;
#188 = ORIENTED_EDGE ( 'NONE', *, *, #191, .T. ) ;
#189 = CARTESIAN_POINT ( 'NONE',  ( 16.94999999999999929, 0.0000000000000000000, 0.0000000000000000000 ) ) ;
#190 = ORIENTED_EDGE ( 'NONE', *, *, #210, .T. ) ;
#191 = EDGE_CURVE ( 'NONE', #120, #77, #117, .T. ) ;
#192 = ORIENTED_EDGE ( 'NONE', *, *, #216, .T. ) ;
#193 = ORIENTED_EDGE ( 'NONE', *, *, #216, .F. ) ;
#194 = MECHANICAL_DESIGN_GEOMETRIC_PRESENTATION_REPRESENTATION (  '', ( #136 ), #199 ) ;
#195 = COLOUR_RGB ( '',0.8235294117647058432, 0.8627450980392157298, 1.000000000000000000 ) ;
#196 = CYLINDRICAL_SURFACE ( 'NONE', #121, 19.80000000000000071 ) ;
#197 = FILL_AREA_STYLE ('',( #11 ) ) ;
#198 = FACE_OUTER_BOUND ( 'NONE', #36, .T. ) ;
#199 =( GEOMETRIC_REPRESENTATION_CONTEXT ( 3 ) GLOBAL_UNCERTAINTY_ASSIGNED_CONTEXT ( ( #161 ) ) GLOBAL_UNIT_ASSIGNED_CONTEXT ( ( #177, #213, #152 ) ) REPRESENTATION_CONTEXT ( 'NONE', 'WORKASPACE' ) );
#200 = SURFACE_STYLE_FILL_AREA ( #197 ) ;
#201 = EDGE_LOOP ( 'NONE', ( #86, #142, #119, #42 ) ) ;
#202 = EDGE_CURVE ( 'NONE', #77, #46, #93, .T. ) ;
#203 = DIRECTION ( 'NONE',  ( 1.000000000000000000, 0.0000000000000000000, 0.0000000000000000000 ) ) ;
#204 =( LENGTH_UNIT ( ) NAMED_UNIT ( * ) SI_UNIT ( .MILLI., .METRE. ) );
#205 =( GEOMETRIC_REPRESENTATION_CONTEXT ( 3 ) GLOBAL_UNCERTAINTY_ASSIGNED_CONTEXT ( ( #80 ) ) GLOBAL_UNIT_ASSIGNED_CONTEXT ( ( #204, #132, #207 ) ) REPRESENTATION_CONTEXT ( 'NONE', 'WORKASPACE' ) );
#206 = DIRECTION ( 'NONE',  ( 0.0000000000000000000, 0.0000000000000000000, 1.000000000000000000 ) ) ;
#207 =( NAMED_UNIT ( * ) SI_UNIT ( $, .STERADIAN. ) SOLID_ANGLE_UNIT ( ) );
#208 = DIRECTION ( 'NONE',  ( 1.000000000000000000, 0.0000000000000000000, 0.0000000000000000000 ) ) ;
#209 = VERTEX_POINT ( 'NONE', #242 ) ;
#210 = EDGE_CURVE ( 'NONE', #209, #183, #137, .T. ) ;
#211 = ORIENTED_EDGE ( 'NONE', *, *, #158, .T. ) ;
#212 = SURFACE_STYLE_FILL_AREA ( #58 ) ;
#213 =( NAMED_UNIT ( * ) PLANE_ANGLE_UNIT ( ) SI_UNIT ( $, .RADIAN. ) );
#214 = ORIENTED_EDGE ( 'NONE', *, *, #202, .F. ) ;
#215 = FACE_OUTER_BOUND ( 'NONE', #59, .T. ) ;
#216 = EDGE_CURVE ( 'NONE', #7, #46, #9, .T. ) ;
#217 = DIRECTION ( 'NONE',  ( 1.000000000000000000, 0.0000000000000000000, 0.0000000000000000000 ) ) ;
#218 = CYLINDRICAL_SURFACE ( 'NONE', #82, 16.94999999999999929 ) ;
#219 = APPLICATION_CONTEXT ( 'automotive_design' ) ;
#220 = PRESENTATION_STYLE_ASSIGNMENT (( #109 ) ) ;
#221 = PRODUCT_DEFINITION_SHAPE ( 'NONE', 'NONE',  #237 ) ;
#222 = ADVANCED_FACE ( 'NONE', ( #169 ), #20, .F. ) ;
#223 = AXIS2_PLACEMENT_3D ( 'NONE', #4, #135, #208 ) ;
#224 =( GEOMETRIC_REPRESENTATION_CONTEXT ( 3 ) GLOBAL_UNCERTAINTY_ASSIGNED_CONTEXT ( ( #92 ) ) GLOBAL_UNIT_ASSIGNED_CONTEXT ( ( #19, #153, #173 ) ) REPRESENTATION_CONTEXT ( 'NONE', 'WORKASPACE' ) );
#225 = CARTESIAN_POINT ( 'NONE',  ( 19.80000000000000071, 0.0000000000000000000, 0.0000000000000000000 ) ) ;
#226 =( LENGTH_UNIT ( ) NAMED_UNIT ( * ) SI_UNIT ( .MILLI., .METRE. ) );
#227 = CARTESIAN_POINT ( 'NONE',  ( -19.80000000000000071, 2.424800662311759404E-15, -300.0000000000000000 ) ) ;
#228 = ORIENTED_EDGE ( 'NONE', *, *, #88, .F. ) ;
#229 = VERTEX_POINT ( 'NONE', #225 ) ;
#230 = UNCERTAINTY_MEASURE_WITH_UNIT (LENGTH_MEASURE( 1.000000000000000082E-05 ), #125, 'distance_accuracy_value', 'NONE');
#231 = CARTESIAN_POINT ( 'NONE',  ( 0.0000000000000000000, 0.0000000000000000000, 0.0000000000000000000 ) ) ;
#232 = ORIENTED_EDGE ( 'NONE', *, *, #202, .T. ) ;
#233 = CARTESIAN_POINT ( 'NONE',  ( 0.0000000000000000000, 0.0000000000000000000, 0.0000000000000000000 ) ) ;
#234 = CARTESIAN_POINT ( 'NONE',  ( 19.80000000000000071, 0.0000000000000000000, -300.0000000000000000 ) ) ;
#235 = SHAPE_DEFINITION_REPRESENTATION ( #221, #130 ) ;
#236 = DIRECTION ( 'NONE',  ( 1.000000000000000000, 0.0000000000000000000, 0.0000000000000000000 ) ) ;
#237 = PRODUCT_DEFINITION ( 'UNKNOWN', '', #114, #107 ) ;
#238 = FACE_OUTER_BOUND ( 'NONE', #22, .T. ) ;
#239 = COLOUR_RGB ( '',0.8235294117647058432, 0.8627450980392157298, 1.000000000000000000 ) ;
#240 = AXIS2_PLACEMENT_3D ( 'NONE', #87, #165, #67 ) ;
#241 =( NAMED_UNIT ( * ) PLANE_ANGLE_UNIT ( ) SI_UNIT ( $, .RADIAN. ) );
#242 = CARTESIAN_POINT ( 'NONE',  ( -19.80000000000000071, 2.424800662311759404E-15, -300.0000000000000000 ) ) ;
#243 = SURFACE_SIDE_STYLE ('',( #168 ) ) ;
#244 = AXIS2_PLACEMENT_3D ( 'NONE', #12, #85, #236 ) ;
ENDSEC;
END-ISO-10303-21;
