ISO-10303-21;
HEADER;
FILE_DESCRIPTION (( 'STEP AP214' ),
    '1' );
FILE_NAME ('A220 Òðàïåöåèäàëüíûé âèíò 8õ1031 ìì, 4-õ çàõîäíûé, øàã 2 ìì.STEP',
    '2019-09-11T09:42:26',
    ( 'Windows User' ),
    ( '' ),
    'SwSTEP 2.0',
    'SolidWorks 2018',
    '' );
FILE_SCHEMA (( 'AUTOMOTIVE_DESIGN' ));
ENDSEC;

DATA;
#1 = DIRECTION ( 'NONE',  ( 0.0000000000000000000, 0.0000000000000000000, -1.000000000000000000 ) ) ;
#2 = CARTESIAN_POINT ( 'NONE',  ( 1031.000000000000000, 0.0000000000000000000, 0.0000000000000000000 ) ) ;
#3 = APPLICATION_CONTEXT ( 'automotive_design' ) ;
#4 =( NAMED_UNIT ( * ) SI_UNIT ( $, .STERADIAN. ) SOLID_ANGLE_UNIT ( ) );
#5 =( GEOMETRIC_REPRESENTATION_CONTEXT ( 3 ) GLOBAL_UNCERTAINTY_ASSIGNED_CONTEXT ( ( #141 ) ) GLOBAL_UNIT_ASSIGNED_CONTEXT ( ( #94, #143, #144 ) ) REPRESENTATION_CONTEXT ( 'NONE', 'WORKASPACE' ) );
#6 = VERTEX_POINT ( 'NONE', #9 ) ;
#7 = CIRCLE ( 'NONE', #167, 4.000000000000000000 ) ;
#8 =( GEOMETRIC_REPRESENTATION_CONTEXT ( 3 ) GLOBAL_UNCERTAINTY_ASSIGNED_CONTEXT ( ( #157 ) ) GLOBAL_UNIT_ASSIGNED_CONTEXT ( ( #30, #127, #4 ) ) REPRESENTATION_CONTEXT ( 'NONE', 'WORKASPACE' ) );
#9 = CARTESIAN_POINT ( 'NONE',  ( 0.0000000000000000000, 0.0000000000000000000, 4.000000000000000000 ) ) ;
#10 = SURFACE_STYLE_FILL_AREA ( #169 ) ;
#11 = DIRECTION ( 'NONE',  ( 1.000000000000000000, 0.0000000000000000000, 0.0000000000000000000 ) ) ;
#12 = MECHANICAL_DESIGN_GEOMETRIC_PRESENTATION_REPRESENTATION (  '', ( #44 ), #8 ) ;
#13 = UNCERTAINTY_MEASURE_WITH_UNIT (LENGTH_MEASURE( 1.000000000000000082E-05 ), #132, 'distance_accuracy_value', 'NONE');
#14 = ORIENTED_EDGE ( 'NONE', *, *, #47, .T. ) ;
#15 = FILL_AREA_STYLE_COLOUR ( '', #85 ) ;
#16 = CARTESIAN_POINT ( 'NONE',  ( 0.0000000000000000000, 4.898587196589412829E-16, -4.000000000000000000 ) ) ;
#17 = DIRECTION ( 'NONE',  ( -1.000000000000000000, -0.0000000000000000000, -0.0000000000000000000 ) ) ;
#18 = ORIENTED_EDGE ( 'NONE', *, *, #79, .F. ) ;
#19 = ADVANCED_FACE ( 'NONE', ( #74 ), #153, .F. ) ;
#20 = STYLED_ITEM ( 'NONE', ( #129 ), #100 ) ;
#21 = SHAPE_DEFINITION_REPRESENTATION ( #33, #70 ) ;
#22 = EDGE_LOOP ( 'NONE', ( #18, #97, #165, #75 ) ) ;
#23 = FACE_OUTER_BOUND ( 'NONE', #149, .T. ) ;
#24 = PRESENTATION_LAYER_ASSIGNMENT (  '', '', ( #20 ) ) ;
#25 = AXIS2_PLACEMENT_3D ( 'NONE', #54, #86, #1 ) ;
#26 = CARTESIAN_POINT ( 'NONE',  ( 1031.000000000000000, 0.0000000000000000000, 4.000000000000000000 ) ) ;
#27 = DIRECTION ( 'NONE',  ( 0.0000000000000000000, 0.0000000000000000000, -1.000000000000000000 ) ) ;
#28 = FILL_AREA_STYLE_COLOUR ( '', #161 ) ;
#29 = SURFACE_SIDE_STYLE ('',( #48 ) ) ;
#30 =( LENGTH_UNIT ( ) NAMED_UNIT ( * ) SI_UNIT ( .MILLI., .METRE. ) );
#31 =( GEOMETRIC_REPRESENTATION_CONTEXT ( 3 ) GLOBAL_UNCERTAINTY_ASSIGNED_CONTEXT ( ( #13 ) ) GLOBAL_UNIT_ASSIGNED_CONTEXT ( ( #132, #158, #170 ) ) REPRESENTATION_CONTEXT ( 'NONE', 'WORKASPACE' ) );
#32 = PRESENTATION_STYLE_ASSIGNMENT (( #136 ) ) ;
#33 = PRODUCT_DEFINITION_SHAPE ( 'NONE', 'NONE',  #60 ) ;
#34 = FILL_AREA_STYLE ('',( #137 ) ) ;
#35 = DIRECTION ( 'NONE',  ( 1.000000000000000000, 0.0000000000000000000, 0.0000000000000000000 ) ) ;
#36 = SURFACE_SIDE_STYLE ('',( #93 ) ) ;
#37 = DIRECTION ( 'NONE',  ( 0.0000000000000000000, 0.0000000000000000000, 1.000000000000000000 ) ) ;
#38 =( LENGTH_UNIT ( ) NAMED_UNIT ( * ) SI_UNIT ( .MILLI., .METRE. ) );
#39 = ORIENTED_EDGE ( 'NONE', *, *, #139, .F. ) ;
#40 =( NAMED_UNIT ( * ) PLANE_ANGLE_UNIT ( ) SI_UNIT ( $, .RADIAN. ) );
#41 = APPLICATION_CONTEXT ( 'automotive_design' ) ;
#42 = PRODUCT ( 'A220 Òðàïåöåèäàëüíûé âèíò 8õ1031 ìì, 4-õ çàõîäíûé, øàã 2 ìì', 'A220 Òðàïåöåèäàëüíûé âèíò 8õ1031 ìì, 4-õ çàõîäíûé, øàã 2 ìì', '', ( #163 ) ) ;
#43 = VECTOR ( 'NONE', #64, 1000.000000000000000 ) ;
#44 = STYLED_ITEM ( 'NONE', ( #99 ), #70 ) ;
#45 = ORIENTED_EDGE ( 'NONE', *, *, #126, .T. ) ;
#46 = CIRCLE ( 'NONE', #145, 4.000000000000000000 ) ;
#47 = EDGE_CURVE ( 'NONE', #142, #115, #89, .T. ) ;
#48 = SURFACE_STYLE_FILL_AREA ( #148 ) ;
#49 = UNCERTAINTY_MEASURE_WITH_UNIT (LENGTH_MEASURE( 1.000000000000000082E-05 ), #38, 'distance_accuracy_value', 'NONE');
#50 = AXIS2_PLACEMENT_3D ( 'NONE', #81, #76, #103 ) ;
#51 = SURFACE_SIDE_STYLE ('',( #10 ) ) ;
#52 = ORIENTED_EDGE ( 'NONE', *, *, #126, .F. ) ;
#53 = CARTESIAN_POINT ( 'NONE',  ( 1031.000000000000000, 4.898587196589412829E-16, -4.000000000000000000 ) ) ;
#54 = CARTESIAN_POINT ( 'NONE',  ( 0.0000000000000000000, 0.0000000000000000000, 0.0000000000000000000 ) ) ;
#55 = FILL_AREA_STYLE ('',( #15 ) ) ;
#56 = DIRECTION ( 'NONE',  ( 1.000000000000000000, 0.0000000000000000000, 0.0000000000000000000 ) ) ;
#57 = APPLICATION_PROTOCOL_DEFINITION ( 'draft international standard', 'automotive_design', 1998, #3 ) ;
#58 = CARTESIAN_POINT ( 'NONE',  ( 0.0000000000000000000, 0.0000000000000000000, 0.0000000000000000000 ) ) ;
#59 = EDGE_CURVE ( 'NONE', #115, #6, #152, .T. ) ;
#60 = PRODUCT_DEFINITION ( 'UNKNOWN', '', #69, #116 ) ;
#61 = AXIS2_PLACEMENT_3D ( 'NONE', #107, #111, #120 ) ;
#62 = DIRECTION ( 'NONE',  ( -1.000000000000000000, -0.0000000000000000000, -0.0000000000000000000 ) ) ;
#63 = PRESENTATION_STYLE_ASSIGNMENT (( #124 ) ) ;
#64 = DIRECTION ( 'NONE',  ( -1.000000000000000000, -0.0000000000000000000, -0.0000000000000000000 ) ) ;
#65 = PRESENTATION_LAYER_ASSIGNMENT (  '', '', ( #44 ) ) ;
#66 = DIRECTION ( 'NONE',  ( 0.0000000000000000000, 0.0000000000000000000, -1.000000000000000000 ) ) ;
#67 = CARTESIAN_POINT ( 'NONE',  ( 1031.000000000000000, 0.0000000000000000000, 4.000000000000000000 ) ) ;
#68 = EDGE_CURVE ( 'NONE', #115, #142, #7, .T. ) ;
#69 = PRODUCT_DEFINITION_FORMATION_WITH_SPECIFIED_SOURCE ( 'ANY', '', #42, .NOT_KNOWN. ) ;
#70 = ADVANCED_BREP_SHAPE_REPRESENTATION ( 'A220 T¨ðÿõ¡õøôðû¹ývù òøýª 8¿1031 üü, 4-¿ ÷ð¿þôývù, °ðó 2 üü', ( #166, #130 ), #71 ) ;
#71 =( GEOMETRIC_REPRESENTATION_CONTEXT ( 3 ) GLOBAL_UNCERTAINTY_ASSIGNED_CONTEXT ( ( #49 ) ) GLOBAL_UNIT_ASSIGNED_CONTEXT ( ( #38, #73, #162 ) ) REPRESENTATION_CONTEXT ( 'NONE', 'WORKASPACE' ) );
#72 = CIRCLE ( 'NONE', #25, 4.000000000000000000 ) ;
#73 =( NAMED_UNIT ( * ) PLANE_ANGLE_UNIT ( ) SI_UNIT ( $, .RADIAN. ) );
#74 = FACE_OUTER_BOUND ( 'NONE', #91, .T. ) ;
#75 = ORIENTED_EDGE ( 'NONE', *, *, #139, .T. ) ;
#76 = DIRECTION ( 'NONE',  ( 1.000000000000000000, 0.0000000000000000000, 0.0000000000000000000 ) ) ;
#77 = COLOUR_RGB ( '',0.7960784313725489669, 0.8235294117647058432, 0.9372549019607843146 ) ;
#78 = UNCERTAINTY_MEASURE_WITH_UNIT (LENGTH_MEASURE( 1.000000000000000082E-05 ), #159, 'distance_accuracy_value', 'NONE');
#79 = EDGE_CURVE ( 'NONE', #142, #168, #146, .T. ) ;
#80 = MECHANICAL_DESIGN_GEOMETRIC_PRESENTATION_REPRESENTATION (  '', ( #88 ), #128 ) ;
#81 = CARTESIAN_POINT ( 'NONE',  ( 0.0000000000000000000, 0.0000000000000000000, 0.0000000000000000000 ) ) ;
#82 = CARTESIAN_POINT ( 'NONE',  ( 1031.000000000000000, 4.898587196589412829E-16, -4.000000000000000000 ) ) ;
#83 = FILL_AREA_STYLE_COLOUR ( '', #77 ) ;
#84 = FACE_OUTER_BOUND ( 'NONE', #22, .T. ) ;
#85 = COLOUR_RGB ( '',0.7960784313725489669, 0.8235294117647058432, 0.9372549019607843146 ) ;
#86 = DIRECTION ( 'NONE',  ( 1.000000000000000000, 0.0000000000000000000, 0.0000000000000000000 ) ) ;
#87 = DIRECTION ( 'NONE',  ( 1.000000000000000000, 0.0000000000000000000, 0.0000000000000000000 ) ) ;
#88 = STYLED_ITEM ( 'NONE', ( #63 ), #166 ) ;
#89 = CIRCLE ( 'NONE', #125, 4.000000000000000000 ) ;
#90 = ORIENTED_EDGE ( 'NONE', *, *, #59, .F. ) ;
#91 = EDGE_LOOP ( 'NONE', ( #39, #52 ) ) ;
#92 = CARTESIAN_POINT ( 'NONE',  ( 0.0000000000000000000, 0.0000000000000000000, 0.0000000000000000000 ) ) ;
#93 = SURFACE_STYLE_FILL_AREA ( #55 ) ;
#94 =( LENGTH_UNIT ( ) NAMED_UNIT ( * ) SI_UNIT ( .MILLI., .METRE. ) );
#95 = CARTESIAN_POINT ( 'NONE',  ( 1031.000000000000000, 0.0000000000000000000, 0.0000000000000000000 ) ) ;
#96 = CARTESIAN_POINT ( 'NONE',  ( 1031.000000000000000, 0.0000000000000000000, 0.0000000000000000000 ) ) ;
#97 = ORIENTED_EDGE ( 'NONE', *, *, #68, .F. ) ;
#98 = SURFACE_STYLE_USAGE ( .BOTH. , #29 ) ;
#99 = PRESENTATION_STYLE_ASSIGNMENT (( #98 ) ) ;
#100 = ADVANCED_FACE ( 'NONE', ( #84 ), #105, .T. ) ;
#101 = CLOSED_SHELL ( 'NONE', ( #138, #100, #135, #19 ) ) ;
#102 = FACE_OUTER_BOUND ( 'NONE', #104, .T. ) ;
#103 = DIRECTION ( 'NONE',  ( 0.0000000000000000000, 0.0000000000000000000, -1.000000000000000000 ) ) ;
#104 = EDGE_LOOP ( 'NONE', ( #160, #121, #45, #90 ) ) ;
#105 = CYLINDRICAL_SURFACE ( 'NONE', #117, 4.000000000000000000 ) ;
#106 = DIRECTION ( 'NONE',  ( 1.000000000000000000, 0.0000000000000000000, 0.0000000000000000000 ) ) ;
#107 = CARTESIAN_POINT ( 'NONE',  ( 1031.000000000000000, 0.0000000000000000000, 0.0000000000000000000 ) ) ;
#108 = CARTESIAN_POINT ( 'NONE',  ( 1031.000000000000000, 0.0000000000000000000, 0.0000000000000000000 ) ) ;
#109 = SURFACE_SIDE_STYLE ('',( #156 ) ) ;
#110 = MECHANICAL_DESIGN_GEOMETRIC_PRESENTATION_REPRESENTATION (  '', ( #20 ), #31 ) ;
#111 = DIRECTION ( 'NONE',  ( -1.000000000000000000, -0.0000000000000000000, -0.0000000000000000000 ) ) ;
#112 =( NAMED_UNIT ( * ) SI_UNIT ( $, .STERADIAN. ) SOLID_ANGLE_UNIT ( ) );
#113 = APPLICATION_PROTOCOL_DEFINITION ( 'draft international standard', 'automotive_design', 1998, #41 ) ;
#114 = COLOUR_RGB ( '',0.7960784313725489669, 0.8235294117647058432, 0.9372549019607843146 ) ;
#115 = VERTEX_POINT ( 'NONE', #67 ) ;
#116 = PRODUCT_DEFINITION_CONTEXT ( 'detailed design', #41, 'design' ) ;
#117 = AXIS2_PLACEMENT_3D ( 'NONE', #96, #17, #37 ) ;
#118 = VECTOR ( 'NONE', #62, 1000.000000000000000 ) ;
#119 = MECHANICAL_DESIGN_GEOMETRIC_PRESENTATION_REPRESENTATION (  '', ( #122 ), #5 ) ;
#120 = DIRECTION ( 'NONE',  ( 0.0000000000000000000, 0.0000000000000000000, 1.000000000000000000 ) ) ;
#121 = ORIENTED_EDGE ( 'NONE', *, *, #79, .T. ) ;
#122 = STYLED_ITEM ( 'NONE', ( #32 ), #138 ) ;
#123 = DIRECTION ( 'NONE',  ( 0.0000000000000000000, 0.0000000000000000000, -1.000000000000000000 ) ) ;
#124 = SURFACE_STYLE_USAGE ( .BOTH. , #36 ) ;
#125 = AXIS2_PLACEMENT_3D ( 'NONE', #95, #87, #123 ) ;
#126 = EDGE_CURVE ( 'NONE', #168, #6, #46, .T. ) ;
#127 =( NAMED_UNIT ( * ) PLANE_ANGLE_UNIT ( ) SI_UNIT ( $, .RADIAN. ) );
#128 =( GEOMETRIC_REPRESENTATION_CONTEXT ( 3 ) GLOBAL_UNCERTAINTY_ASSIGNED_CONTEXT ( ( #78 ) ) GLOBAL_UNIT_ASSIGNED_CONTEXT ( ( #159, #40, #112 ) ) REPRESENTATION_CONTEXT ( 'NONE', 'WORKASPACE' ) );
#129 = PRESENTATION_STYLE_ASSIGNMENT (( #147 ) ) ;
#130 = AXIS2_PLACEMENT_3D ( 'NONE', #58, #151, #56 ) ;
#131 = ORIENTED_EDGE ( 'NONE', *, *, #68, .T. ) ;
#132 =( LENGTH_UNIT ( ) NAMED_UNIT ( * ) SI_UNIT ( .MILLI., .METRE. ) );
#133 = PRODUCT_RELATED_PRODUCT_CATEGORY ( 'part', '', ( #42 ) ) ;
#134 = DIRECTION ( 'NONE',  ( 0.0000000000000000000, 0.0000000000000000000, -1.000000000000000000 ) ) ;
#135 = ADVANCED_FACE ( 'NONE', ( #23 ), #154, .T. ) ;
#136 = SURFACE_STYLE_USAGE ( .BOTH. , #51 ) ;
#137 = FILL_AREA_STYLE_COLOUR ( '', #114 ) ;
#138 = ADVANCED_FACE ( 'NONE', ( #102 ), #150, .T. ) ;
#139 = EDGE_CURVE ( 'NONE', #6, #168, #72, .T. ) ;
#140 = AXIS2_PLACEMENT_3D ( 'NONE', #2, #35, #134 ) ;
#141 = UNCERTAINTY_MEASURE_WITH_UNIT (LENGTH_MEASURE( 1.000000000000000082E-05 ), #94, 'distance_accuracy_value', 'NONE');
#142 = VERTEX_POINT ( 'NONE', #53 ) ;
#143 =( NAMED_UNIT ( * ) PLANE_ANGLE_UNIT ( ) SI_UNIT ( $, .RADIAN. ) );
#144 =( NAMED_UNIT ( * ) SI_UNIT ( $, .STERADIAN. ) SOLID_ANGLE_UNIT ( ) );
#145 = AXIS2_PLACEMENT_3D ( 'NONE', #92, #106, #27 ) ;
#146 = LINE ( 'NONE', #82, #43 ) ;
#147 = SURFACE_STYLE_USAGE ( .BOTH. , #109 ) ;
#148 = FILL_AREA_STYLE ('',( #83 ) ) ;
#149 = EDGE_LOOP ( 'NONE', ( #131, #14 ) ) ;
#150 = CYLINDRICAL_SURFACE ( 'NONE', #61, 4.000000000000000000 ) ;
#151 = DIRECTION ( 'NONE',  ( 0.0000000000000000000, 0.0000000000000000000, 1.000000000000000000 ) ) ;
#152 = LINE ( 'NONE', #26, #118 ) ;
#153 = PLANE ( 'NONE',  #50 ) ;
#154 = PLANE ( 'NONE',  #140 ) ;
#155 = PRESENTATION_LAYER_ASSIGNMENT (  '', '', ( #122 ) ) ;
#156 = SURFACE_STYLE_FILL_AREA ( #34 ) ;
#157 = UNCERTAINTY_MEASURE_WITH_UNIT (LENGTH_MEASURE( 1.000000000000000082E-05 ), #30, 'distance_accuracy_value', 'NONE');
#158 =( NAMED_UNIT ( * ) PLANE_ANGLE_UNIT ( ) SI_UNIT ( $, .RADIAN. ) );
#159 =( LENGTH_UNIT ( ) NAMED_UNIT ( * ) SI_UNIT ( .MILLI., .METRE. ) );
#160 = ORIENTED_EDGE ( 'NONE', *, *, #47, .F. ) ;
#161 = COLOUR_RGB ( '',0.7960784313725489669, 0.8235294117647058432, 0.9372549019607843146 ) ;
#162 =( NAMED_UNIT ( * ) SI_UNIT ( $, .STERADIAN. ) SOLID_ANGLE_UNIT ( ) );
#163 = PRODUCT_CONTEXT ( 'NONE', #3, 'mechanical' ) ;
#164 = PRESENTATION_LAYER_ASSIGNMENT (  '', '', ( #88 ) ) ;
#165 = ORIENTED_EDGE ( 'NONE', *, *, #59, .T. ) ;
#166 = MANIFOLD_SOLID_BREP ( 'Áîáûøêà-Âûòÿíóòü1', #101 ) ;
#167 = AXIS2_PLACEMENT_3D ( 'NONE', #108, #11, #66 ) ;
#168 = VERTEX_POINT ( 'NONE', #16 ) ;
#169 = FILL_AREA_STYLE ('',( #28 ) ) ;
#170 =( NAMED_UNIT ( * ) SI_UNIT ( $, .STERADIAN. ) SOLID_ANGLE_UNIT ( ) );
ENDSEC;
END-ISO-10303-21;
