ISO-10303-21;
HEADER;
FILE_DESCRIPTION (( 'STEP AP214' ),
    '1' );
FILE_NAME ('SH20S2X Àëþìèíèåâàÿ ïîëîñà ÀÄ31Ò 20õ2 (Áåç ïîêðûòèÿ).STEP',
    '2025-11-18T10:14:48',
    ( '' ),
    ( '' ),
    'SwSTEP 2.0',
    'SolidWorks 2025',
    '' );
FILE_SCHEMA (( 'AUTOMOTIVE_DESIGN' ));
ENDSEC;

DATA;
#1 = EDGE_CURVE ( 'NONE', #43, #159, #106, .T. ) ;
#2 = EDGE_CURVE ( 'NONE', #129, #113, #32, .T. ) ;
#3 = AXIS2_PLACEMENT_3D ( 'NONE', #68, #183, #125 ) ;
#4 = PRODUCT_DEFINITION_FORMATION_WITH_SPECIFIED_SOURCE ( 'ANY', '', #138, .NOT_KNOWN. ) ;
#5 = CARTESIAN_POINT ( 'NONE',  ( 0.000000000000000000, 0.000000000000000000, -500.0000000000000000 ) ) ;
#6 = FACE_OUTER_BOUND ( 'NONE', #133, .T. ) ;
#7 = DIRECTION ( 'NONE',  ( -0.000000000000000000, -1.000000000000000000, -0.000000000000000000 ) ) ;
#8 =( LENGTH_UNIT ( ) NAMED_UNIT ( * ) SI_UNIT ( .MILLI., .METRE. ) );
#9 = CARTESIAN_POINT ( 'NONE',  ( -10.00000000000000178, 0.9999999999999952260, 500.0000000000000000 ) ) ;
#10 = DIRECTION ( 'NONE',  ( 1.000000000000000000, 0.000000000000000000, 0.000000000000000000 ) ) ;
#11 = APPLICATION_CONTEXT ( 'automotive_design' ) ;
#12 = UNCERTAINTY_MEASURE_WITH_UNIT (LENGTH_MEASURE( 1.000000000000000082E-05 ), #8, 'distance_accuracy_value', 'NONE');
#13 = VERTEX_POINT ( 'NONE', #134 ) ;
#14 = VECTOR ( 'NONE', #49, 1000.000000000000000 ) ;
#15 = ORIENTED_EDGE ( 'NONE', *, *, #55, .T. ) ;
#16 = PRODUCT_DEFINITION_SHAPE ( 'NONE', 'NONE',  #99 ) ;
#17 = SURFACE_STYLE_USAGE ( .BOTH. , #122 ) ;
#18 = VECTOR ( 'NONE', #37, 1000.000000000000000 ) ;
#19 = PLANE ( 'NONE',  #3 ) ;
#20 = LINE ( 'NONE', #34, #18 ) ;
#21 = CARTESIAN_POINT ( 'NONE',  ( 10.00000000000000178, 0.9999999999999976685, 500.0000000000000000 ) ) ;
#22 = FACE_OUTER_BOUND ( 'NONE', #149, .T. ) ;
#23 = EDGE_LOOP ( 'NONE', ( #75, #40, #89, #161 ) ) ;
#24 = ADVANCED_FACE ( 'NONE', ( #6 ), #84, .T. ) ;
#25 = CARTESIAN_POINT ( 'NONE',  ( 0.000000000000000000, 0.000000000000000000, 500.0000000000000000 ) ) ;
#26 = ORIENTED_EDGE ( 'NONE', *, *, #150, .F. ) ;
#27 = APPLICATION_CONTEXT ( 'automotive_design' ) ;
#28 = APPLICATION_PROTOCOL_DEFINITION ( 'draft international standard', 'automotive_design', 1998, #27 ) ;
#29 = ORIENTED_EDGE ( 'NONE', *, *, #2, .T. ) ;
#30 = UNCERTAINTY_MEASURE_WITH_UNIT (LENGTH_MEASURE( 1.000000000000000082E-05 ), #39, 'distance_accuracy_value', 'NONE');
#31 = EDGE_CURVE ( 'NONE', #117, #87, #96, .T. ) ;
#32 = LINE ( 'NONE', #79, #144 ) ;
#33 =( NAMED_UNIT ( * ) PLANE_ANGLE_UNIT ( ) SI_UNIT ( $, .RADIAN. ) );
#34 = CARTESIAN_POINT ( 'NONE',  ( 10.00000000000000178, -0.9999999999999976685, 500.0000000000000000 ) ) ;
#35 = AXIS2_PLACEMENT_3D ( 'NONE', #116, #57, #186 ) ;
#36 = FACE_OUTER_BOUND ( 'NONE', #146, .T. ) ;
#37 = DIRECTION ( 'NONE',  ( 0.000000000000000000, 1.000000000000000000, 0.000000000000000000 ) ) ;
#38 = DIRECTION ( 'NONE',  ( -1.000000000000000000, -1.192622389734054631E-16, -0.000000000000000000 ) ) ;
#39 =( LENGTH_UNIT ( ) NAMED_UNIT ( * ) SI_UNIT ( .MILLI., .METRE. ) );
#40 = ORIENTED_EDGE ( 'NONE', *, *, #55, .F. ) ;
#41 = CARTESIAN_POINT ( 'NONE',  ( 10.00000000000000178, 0.9999999999999976685, -500.0000000000000000 ) ) ;
#42 = PRODUCT_CONTEXT ( 'NONE', #11, 'mechanical' ) ;
#43 = VERTEX_POINT ( 'NONE', #21 ) ;
#44 = AXIS2_PLACEMENT_3D ( 'NONE', #143, #184, #10 ) ;
#45 = EDGE_CURVE ( 'NONE', #13, #43, #20, .T. ) ;
#46 = ORIENTED_EDGE ( 'NONE', *, *, #52, .F. ) ;
#47 = AXIS2_PLACEMENT_3D ( 'NONE', #71, #130, #103 ) ;
#48 = EDGE_CURVE ( 'NONE', #159, #131, #139, .T. ) ;
#49 = DIRECTION ( 'NONE',  ( -0.000000000000000000, -0.000000000000000000, -1.000000000000000000 ) ) ;
#50 = EDGE_CURVE ( 'NONE', #113, #117, #135, .T. ) ;
#51 = CARTESIAN_POINT ( 'NONE',  ( 10.00000000000000178, -0.9999999999999976685, 500.0000000000000000 ) ) ;
#52 = EDGE_CURVE ( 'NONE', #131, #117, #140, .T. ) ;
#53 = PRESENTATION_STYLE_ASSIGNMENT (( #17 ) ) ;
#54 = CARTESIAN_POINT ( 'NONE',  ( -10.00000000000000178, -1.000000000000000000, 500.0000000000000000 ) ) ;
#55 = EDGE_CURVE ( 'NONE', #129, #131, #124, .T. ) ;
#56 = ORIENTED_EDGE ( 'NONE', *, *, #31, .T. ) ;
#57 = DIRECTION ( 'NONE',  ( 1.192622389734054631E-16, -1.000000000000000000, 0.000000000000000000 ) ) ;
#58 = ADVANCED_FACE ( 'NONE', ( #153 ), #66, .F. ) ;
#59 = DIRECTION ( 'NONE',  ( 0.000000000000000000, 0.000000000000000000, -1.000000000000000000 ) ) ;
#60 = MANIFOLD_SOLID_BREP ( '\X2\0411043e0431044b0448043a0430\X0\-\X2\0412044b0442044f043d04430442044c\X0\1', #155 ) ;
#61 = PRODUCT_DEFINITION_CONTEXT ( 'detailed design', #27, 'design' ) ;
#62 = PRODUCT_RELATED_PRODUCT_CATEGORY ( 'part', '', ( #138 ) ) ;
#63 = DIRECTION ( 'NONE',  ( 1.000000000000000000, 1.192622389734054631E-16, 0.000000000000000000 ) ) ;
#64 = VECTOR ( 'NONE', #65, 1000.000000000000000 ) ;
#65 = DIRECTION ( 'NONE',  ( -0.000000000000000000, -0.000000000000000000, -1.000000000000000000 ) ) ;
#66 = PLANE ( 'NONE',  #167 ) ;
#67 =( NAMED_UNIT ( * ) SI_UNIT ( $, .STERADIAN. ) SOLID_ANGLE_UNIT ( ) );
#68 = CARTESIAN_POINT ( 'NONE',  ( 10.00000000000000178, -0.9999999999999976685, 500.0000000000000000 ) ) ;
#69 = FACE_OUTER_BOUND ( 'NONE', #23, .T. ) ;
#70 = ORIENTED_EDGE ( 'NONE', *, *, #1, .F. ) ;
#71 = CARTESIAN_POINT ( 'NONE',  ( -10.00000000000000178, -1.000000000000000000, 500.0000000000000000 ) ) ;
#72 = SHAPE_DEFINITION_REPRESENTATION ( #16, #182 ) ;
#73 = EDGE_LOOP ( 'NONE', ( #156, #174, #168, #15 ) ) ;
#74 = PLANE ( 'NONE',  #169 ) ;
#75 = ORIENTED_EDGE ( 'NONE', *, *, #48, .T. ) ;
#76 = AXIS2_PLACEMENT_3D ( 'NONE', #5, #162, #123 ) ;
#77 = ORIENTED_EDGE ( 'NONE', *, *, #93, .T. ) ;
#78 = ORIENTED_EDGE ( 'NONE', *, *, #82, .F. ) ;
#79 = CARTESIAN_POINT ( 'NONE',  ( -10.00000000000000178, -1.000000000000000000, 500.0000000000000000 ) ) ;
#80 = EDGE_CURVE ( 'NONE', #43, #129, #151, .T. ) ;
#81 = DIRECTION ( 'NONE',  ( -1.000000000000000000, -1.192622389734054631E-16, -0.000000000000000000 ) ) ;
#82 = EDGE_CURVE ( 'NONE', #113, #13, #85, .T. ) ;
#83 = CARTESIAN_POINT ( 'NONE',  ( 10.00000000000000178, -0.9999999999999976685, -500.0000000000000000 ) ) ;
#84 = PLANE ( 'NONE',  #76 ) ;
#85 = LINE ( 'NONE', #141, #178 ) ;
#86 = DIRECTION ( 'NONE',  ( -1.000000000000000000, 0.000000000000000000, -0.000000000000000000 ) ) ;
#87 = VERTEX_POINT ( 'NONE', #83 ) ;
#88 = APPLICATION_PROTOCOL_DEFINITION ( 'draft international standard', 'automotive_design', 1998, #11 ) ;
#89 = ORIENTED_EDGE ( 'NONE', *, *, #80, .F. ) ;
#90 = PRESENTATION_LAYER_ASSIGNMENT (  '', '', ( #166 ) ) ;
#91 = COLOUR_RGB ( '',0.5921568627450980449, 0.6196078431372549211, 0.6509803921568627638 ) ;
#92 = EDGE_LOOP ( 'NONE', ( #56, #145, #78, #185 ) ) ;
#93 = EDGE_CURVE ( 'NONE', #13, #87, #137, .T. ) ;
#94 = ADVANCED_FACE ( 'NONE', ( #36 ), #19, .F. ) ;
#95 = FILL_AREA_STYLE_COLOUR ( '', #91 ) ;
#96 = LINE ( 'NONE', #120, #100 ) ;
#97 = CARTESIAN_POINT ( 'NONE',  ( -10.00000000000000178, 0.9999999999999952260, 500.0000000000000000 ) ) ;
#98 = DIRECTION ( 'NONE',  ( -1.192622389734054631E-16, 1.000000000000000000, 0.000000000000000000 ) ) ;
#99 = PRODUCT_DEFINITION ( 'UNKNOWN', '', #4, #61 ) ;
#100 = VECTOR ( 'NONE', #181, 1000.000000000000000 ) ;
#101 = ORIENTED_EDGE ( 'NONE', *, *, #82, .T. ) ;
#102 = ORIENTED_EDGE ( 'NONE', *, *, #150, .T. ) ;
#103 = DIRECTION ( 'NONE',  ( 0.000000000000000000, 0.000000000000000000, -1.000000000000000000 ) ) ;
#104 = VECTOR ( 'NONE', #176, 1000.000000000000000 ) ;
#105 = CARTESIAN_POINT ( 'NONE',  ( 10.00000000000000178, 0.9999999999999976685, 500.0000000000000000 ) ) ;
#106 = LINE ( 'NONE', #105, #104 ) ;
#107 = CARTESIAN_POINT ( 'NONE',  ( -10.00000000000000178, -1.000000000000000000, -500.0000000000000000 ) ) ;
#108 = DIRECTION ( 'NONE',  ( -0.000000000000000000, -0.000000000000000000, -1.000000000000000000 ) ) ;
#109 = CARTESIAN_POINT ( 'NONE',  ( -10.00000000000000178, -1.000000000000000000, 500.0000000000000000 ) ) ;
#110 = SURFACE_STYLE_FILL_AREA ( #163 ) ;
#111 = VECTOR ( 'NONE', #170, 1000.000000000000000 ) ;
#112 = PLANE ( 'NONE',  #47 ) ;
#113 = VERTEX_POINT ( 'NONE', #54 ) ;
#114 = FACE_OUTER_BOUND ( 'NONE', #73, .T. ) ;
#115 = VECTOR ( 'NONE', #108, 1000.000000000000000 ) ;
#116 = CARTESIAN_POINT ( 'NONE',  ( -10.00000000000000178, 0.9999999999999952260, 500.0000000000000000 ) ) ;
#117 = VERTEX_POINT ( 'NONE', #165 ) ;
#118 = ORIENTED_EDGE ( 'NONE', *, *, #45, .T. ) ;
#119 = VECTOR ( 'NONE', #7, 1000.000000000000000 ) ;
#120 = CARTESIAN_POINT ( 'NONE',  ( -10.00000000000000178, -1.000000000000000000, -500.0000000000000000 ) ) ;
#121 =( GEOMETRIC_REPRESENTATION_CONTEXT ( 3 ) GLOBAL_UNCERTAINTY_ASSIGNED_CONTEXT ( ( #30 ) ) GLOBAL_UNIT_ASSIGNED_CONTEXT ( ( #39, #142, #126 ) ) REPRESENTATION_CONTEXT ( 'NONE', 'WORKASPACE' ) );
#122 = SURFACE_SIDE_STYLE ('',( #110 ) ) ;
#123 = DIRECTION ( 'NONE',  ( -1.000000000000000000, 0.000000000000000000, -0.000000000000000000 ) ) ;
#124 = LINE ( 'NONE', #97, #64 ) ;
#125 = DIRECTION ( 'NONE',  ( 0.000000000000000000, 0.000000000000000000, 1.000000000000000000 ) ) ;
#126 =( NAMED_UNIT ( * ) SI_UNIT ( $, .STERADIAN. ) SOLID_ANGLE_UNIT ( ) );
#127 = ADVANCED_FACE ( 'NONE', ( #114 ), #112, .F. ) ;
#128 = PLANE ( 'NONE',  #35 ) ;
#129 = VERTEX_POINT ( 'NONE', #9 ) ;
#130 = DIRECTION ( 'NONE',  ( 1.000000000000000000, 0.000000000000000000, 0.000000000000000000 ) ) ;
#131 = VERTEX_POINT ( 'NONE', #187 ) ;
#132 =( GEOMETRIC_REPRESENTATION_CONTEXT ( 3 ) GLOBAL_UNCERTAINTY_ASSIGNED_CONTEXT ( ( #12 ) ) GLOBAL_UNIT_ASSIGNED_CONTEXT ( ( #8, #33, #67 ) ) REPRESENTATION_CONTEXT ( 'NONE', 'WORKASPACE' ) );
#133 = EDGE_LOOP ( 'NONE', ( #26, #147, #46, #157 ) ) ;
#134 = CARTESIAN_POINT ( 'NONE',  ( 10.00000000000000178, -0.9999999999999976685, 500.0000000000000000 ) ) ;
#135 = LINE ( 'NONE', #109, #14 ) ;
#136 = MECHANICAL_DESIGN_GEOMETRIC_PRESENTATION_REPRESENTATION (  '', ( #166 ), #132 ) ;
#137 = LINE ( 'NONE', #51, #115 ) ;
#138 = PRODUCT ( 'SH20S2X \X2\0410043b044e043c0438043d0438043504320430044f\X0\ \X2\043f043e043b043e04410430\X0\ \X2\04100414\X0\31\X2\0422\X0\ 20\X2\0445\X0\2 (\X2\041104350437\X0\ \X2\043f043e043a0440044b04420438044f\X0\)', 'SH20S2X \X2\0410043b044e043c0438043d0438043504320430044f\X0\ \X2\043f043e043b043e04410430\X0\ \X2\04100414\X0\31\X2\0422\X0\ 20\X2\0445\X0\2 (\X2\041104350437\X0\ \X2\043f043e043a0440044b04420438044f\X0\)', '', ( #42 ) ) ;
#139 = LINE ( 'NONE', #180, #177 ) ;
#140 = LINE ( 'NONE', #107, #119 ) ;
#141 = CARTESIAN_POINT ( 'NONE',  ( -10.00000000000000178, -1.000000000000000000, 500.0000000000000000 ) ) ;
#142 =( NAMED_UNIT ( * ) PLANE_ANGLE_UNIT ( ) SI_UNIT ( $, .RADIAN. ) );
#143 = CARTESIAN_POINT ( 'NONE',  ( 0.000000000000000000, 0.000000000000000000, 0.000000000000000000 ) ) ;
#144 = VECTOR ( 'NONE', #175, 1000.000000000000000 ) ;
#145 = ORIENTED_EDGE ( 'NONE', *, *, #93, .F. ) ;
#146 = EDGE_LOOP ( 'NONE', ( #102, #70, #173, #77 ) ) ;
#147 = ORIENTED_EDGE ( 'NONE', *, *, #31, .F. ) ;
#148 = ORIENTED_EDGE ( 'NONE', *, *, #80, .T. ) ;
#149 = EDGE_LOOP ( 'NONE', ( #118, #148, #29, #101 ) ) ;
#150 = EDGE_CURVE ( 'NONE', #87, #159, #160, .T. ) ;
#151 = LINE ( 'NONE', #154, #152 ) ;
#152 = VECTOR ( 'NONE', #81, 1000.000000000000000 ) ;
#153 = FACE_OUTER_BOUND ( 'NONE', #92, .T. ) ;
#154 = CARTESIAN_POINT ( 'NONE',  ( -10.00000000000000178, 0.9999999999999952260, 500.0000000000000000 ) ) ;
#155 = CLOSED_SHELL ( 'NONE', ( #94, #171, #127, #58, #158, #24 ) ) ;
#156 = ORIENTED_EDGE ( 'NONE', *, *, #52, .T. ) ;
#157 = ORIENTED_EDGE ( 'NONE', *, *, #48, .F. ) ;
#158 = ADVANCED_FACE ( 'NONE', ( #22 ), #74, .F. ) ;
#159 = VERTEX_POINT ( 'NONE', #41 ) ;
#160 = LINE ( 'NONE', #172, #111 ) ;
#161 = ORIENTED_EDGE ( 'NONE', *, *, #1, .T. ) ;
#162 = DIRECTION ( 'NONE',  ( 0.000000000000000000, 0.000000000000000000, -1.000000000000000000 ) ) ;
#163 = FILL_AREA_STYLE ('',( #95 ) ) ;
#164 = DIRECTION ( 'NONE',  ( -1.000000000000000000, -1.192622389734054631E-16, 0.000000000000000000 ) ) ;
#165 = CARTESIAN_POINT ( 'NONE',  ( -10.00000000000000178, -1.000000000000000000, -500.0000000000000000 ) ) ;
#166 = STYLED_ITEM ( 'NONE', ( #53 ), #60 ) ;
#167 = AXIS2_PLACEMENT_3D ( 'NONE', #179, #98, #164 ) ;
#168 = ORIENTED_EDGE ( 'NONE', *, *, #2, .F. ) ;
#169 = AXIS2_PLACEMENT_3D ( 'NONE', #25, #59, #86 ) ;
#170 = DIRECTION ( 'NONE',  ( 0.000000000000000000, 1.000000000000000000, 0.000000000000000000 ) ) ;
#171 = ADVANCED_FACE ( 'NONE', ( #69 ), #128, .F. ) ;
#172 = CARTESIAN_POINT ( 'NONE',  ( 10.00000000000000178, -0.9999999999999976685, -500.0000000000000000 ) ) ;
#173 = ORIENTED_EDGE ( 'NONE', *, *, #45, .F. ) ;
#174 = ORIENTED_EDGE ( 'NONE', *, *, #50, .F. ) ;
#175 = DIRECTION ( 'NONE',  ( -0.000000000000000000, -1.000000000000000000, -0.000000000000000000 ) ) ;
#176 = DIRECTION ( 'NONE',  ( -0.000000000000000000, -0.000000000000000000, -1.000000000000000000 ) ) ;
#177 = VECTOR ( 'NONE', #38, 1000.000000000000000 ) ;
#178 = VECTOR ( 'NONE', #63, 1000.000000000000000 ) ;
#179 = CARTESIAN_POINT ( 'NONE',  ( -10.00000000000000178, -1.000000000000000000, 500.0000000000000000 ) ) ;
#180 = CARTESIAN_POINT ( 'NONE',  ( -10.00000000000000178, 0.9999999999999952260, -500.0000000000000000 ) ) ;
#181 = DIRECTION ( 'NONE',  ( 1.000000000000000000, 1.192622389734054631E-16, 0.000000000000000000 ) ) ;
#182 = ADVANCED_BREP_SHAPE_REPRESENTATION ( 'SH20S2X \X2\0410043b044e043c0438043d0438043504320430044f\X0\ \X2\043f043e043b043e04410430\X0\ \X2\04100414\X0\31\X2\0422\X0\ 20\X2\0445\X0\2 (\X2\041104350437\X0\ \X2\043f043e043a0440044b04420438044f\X0\)', ( #60, #44 ), #121 ) ;
#183 = DIRECTION ( 'NONE',  ( -1.000000000000000000, 0.000000000000000000, 0.000000000000000000 ) ) ;
#184 = DIRECTION ( 'NONE',  ( 0.000000000000000000, 0.000000000000000000, 1.000000000000000000 ) ) ;
#185 = ORIENTED_EDGE ( 'NONE', *, *, #50, .T. ) ;
#186 = DIRECTION ( 'NONE',  ( 1.000000000000000000, 1.192622389734054631E-16, 0.000000000000000000 ) ) ;
#187 = CARTESIAN_POINT ( 'NONE',  ( -10.00000000000000178, 0.9999999999999952260, -500.0000000000000000 ) ) ;
ENDSEC;
END-ISO-10303-21;
