ISO-10303-21;
HEADER;
FILE_DESCRIPTION (( 'STEP AP214' ),
    '1' );
FILE_NAME ('SNSD.30.51.36. Ñóõàðü ïàçîâûé ñ ïðóæèííîé ïëàñòèíîé M5, ïàç 10(C79).STEP',
    '2017-12-18T10:47:07',
    ( '' ),
    ( '' ),
    'SwSTEP 2.0',
    'SolidWorks 2017',
    '' );
FILE_SCHEMA (( 'AUTOMOTIVE_DESIGN' ));
ENDSEC;

DATA;
#1 = DIRECTION ( 'NONE',  ( 0.0000000000000000000, 0.0000000000000000000, 1.000000000000000000 ) ) ;
#2 = CIRCLE ( 'NONE', #119, 2.250000000000000000 ) ;
#3 = FILL_AREA_STYLE_COLOUR ( '', #168 ) ;
#4 = EDGE_CURVE ( 'NONE', #161, #254, #163, .T. ) ;
#5 = PRODUCT_DEFINITION_FORMATION_WITH_SPECIFIED_SOURCE ( 'ANY', '', #55, .NOT_KNOWN. ) ;
#6 = AXIS2_PLACEMENT_3D ( 'NONE', #175, #100, #261 ) ;
#7 = ORIENTED_EDGE ( 'NONE', *, *, #13, .T. ) ;
#8 = LINE ( 'NONE', #256, #195 ) ;
#9 = EDGE_LOOP ( 'NONE', ( #220, #180 ) ) ;
#10 = UNCERTAINTY_MEASURE_WITH_UNIT (LENGTH_MEASURE( 1.000000000000000100E-005 ), #316, 'distance_accuracy_value', 'NONE');
#11 = FILL_AREA_STYLE ('',( #198 ) ) ;
#12 = VECTOR ( 'NONE', #300, 1000.000000000000000 ) ;
#13 = EDGE_CURVE ( 'NONE', #239, #285, #219, .T. ) ;
#14 = DIRECTION ( 'NONE',  ( 0.0000000000000000000, 0.0000000000000000000, 1.000000000000000000 ) ) ;
#15 = FILL_AREA_STYLE_COLOUR ( '', #257 ) ;
#16 = DIRECTION ( 'NONE',  ( 0.0000000000000000000, 1.000000000000000000, 0.0000000000000000000 ) ) ;
#17 = DIRECTION ( 'NONE',  ( 0.0000000000000000000, 0.0000000000000000000, 1.000000000000000000 ) ) ;
#18 = VECTOR ( 'NONE', #98, 1000.000000000000000 ) ;
#19 = PLANE ( 'NONE',  #6 ) ;
#20 = ORIENTED_EDGE ( 'NONE', *, *, #58, .T. ) ;
#21 = PRODUCT ( 'SNSD.30.51.36. Ñóõàðü ïàçîâûé ñ ïðóæèííîé ïëàñòèíîé M5, ïàç 10(C79)', 'SNSD.30.51.36. Ñóõàðü ïàçîâûé ñ ïðóæèííîé ïëàñòèíîé M5, ïàç 10(C79)', '', ( #130 ) ) ;
#22 = AXIS2_PLACEMENT_3D ( 'NONE', #221, #64, #217 ) ;
#23 = CARTESIAN_POINT ( 'NONE',  ( 0.0000000000000000000, 2.000000000000000000, 2.250000000000000000 ) ) ;
#24 = EDGE_CURVE ( 'NONE', #285, #272, #171, .T. ) ;
#25 = FACE_BOUND ( 'NONE', #9, .T. ) ;
#26 = ORIENTED_EDGE ( 'NONE', *, *, #226, .T. ) ;
#27 = ADVANCED_BREP_SHAPE_REPRESENTATION ( '', ( #80, #320 ), #235 ) ;
#28 = LINE ( 'NONE', #91, #108 ) ;
#29 = LINE ( 'NONE', #144, #38 ) ;
#30 = ORIENTED_EDGE ( 'NONE', *, *, #4, .T. ) ;
#31 = DIRECTION ( 'NONE',  ( -0.0000000000000000000, 1.000000000000000000, -0.0000000000000000000 ) ) ;
#32 = ITEM_DEFINED_TRANSFORMATION ( 'NONE', 'NONE', #136,  #320 ) ;
#33 = FILL_AREA_STYLE ('',( #3 ) ) ;
#34 = PRODUCT_RELATED_PRODUCT_CATEGORY ( 'part', '', ( #55 ) ) ;
#35 = VECTOR ( 'NONE', #334, 1000.000000000000000 ) ;
#36 = ORIENTED_EDGE ( 'NONE', *, *, #288, .T. ) ;
#37 = EDGE_CURVE ( 'NONE', #142, #315, #70, .T. ) ;
#38 = VECTOR ( 'NONE', #174, 1000.000000000000000 ) ;
#39 = VERTEX_POINT ( 'NONE', #277 ) ;
#40 = SURFACE_SIDE_STYLE ('',( #271 ) ) ;
#41 = CYLINDRICAL_SURFACE ( 'NONE', #63, 2.250000000000000000 ) ;
#42 = VECTOR ( 'NONE', #208, 1000.000000000000000 ) ;
#43 = DIRECTION ( 'NONE',  ( -3.854941057726239100E-016, -0.0000000000000000000, -1.000000000000000000 ) ) ;
#44 =( GEOMETRIC_REPRESENTATION_CONTEXT ( 3 ) GLOBAL_UNCERTAINTY_ASSIGNED_CONTEXT ( ( #330 ) ) GLOBAL_UNIT_ASSIGNED_CONTEXT ( ( #116, #90, #244 ) ) REPRESENTATION_CONTEXT ( 'NONE', 'WORKASPACE' ) );
#45 = EDGE_CURVE ( 'NONE', #39, #142, #324, .T. ) ;
#46 = PLANE ( 'NONE',  #312 ) ;
#47 = ORIENTED_EDGE ( 'NONE', *, *, #81, .T. ) ;
#48 = CARTESIAN_POINT ( 'NONE',  ( 0.0000000000000000000, -2.000000000000000000, 2.250000000000000000 ) ) ;
#49 = CARTESIAN_POINT ( 'NONE',  ( 8.999999999999998200, 2.000000000000000000, -8.999999999999998200 ) ) ;
#50 =( NAMED_UNIT ( * ) PLANE_ANGLE_UNIT ( ) SI_UNIT ( $, .RADIAN. ) );
#51 = CARTESIAN_POINT ( 'NONE',  ( 8.999999999999998200, 2.000000000000000000, -8.999999999999998200 ) ) ;
#52 = PRODUCT_CONTEXT ( 'NONE', #131, 'mechanical' ) ;
#53 = LINE ( 'NONE', #258, #18 ) ;
#54 = ORIENTED_EDGE ( 'NONE', *, *, #81, .F. ) ;
#55 = PRODUCT ( 'SNSD.30.51.19. Ñóõàðü ïàçîâûé ñ ïðóæèííîé ïëàñòèíîé M6, ïàç 8(B79)B80B78B81C79_00', 'SNSD.30.51.19. Ñóõàðü ïàçîâûé ñ ïðóæèííîé ïëàñòèíîé M6, ïàç 8(B79)B80B78B81C79_00', '', ( #52 ) ) ;
#56 = PRODUCT_DEFINITION ( 'UNKNOWN', '', #143, #323 ) ;
#57 = UNCERTAINTY_MEASURE_WITH_UNIT (LENGTH_MEASURE( 1.000000000000000100E-005 ), #207, 'distance_accuracy_value', 'NONE');
#58 = EDGE_CURVE ( 'NONE', #239, #39, #8, .T. ) ;
#59 = CARTESIAN_POINT ( 'NONE',  ( 0.0000000000000000000, 0.0000000000000000000, 0.0000000000000000000 ) ) ;
#60 = SURFACE_STYLE_FILL_AREA ( #99 ) ;
#61 = DIRECTION ( 'NONE',  ( 0.0000000000000000000, 0.0000000000000000000, 1.000000000000000000 ) ) ;
#62 = SURFACE_STYLE_USAGE ( .BOTH. , #291 ) ;
#63 = AXIS2_PLACEMENT_3D ( 'NONE', #194, #151, #14 ) ;
#64 = DIRECTION ( 'NONE',  ( 0.0000000000000000000, 0.0000000000000000000, 1.000000000000000000 ) ) ;
#65 = ORIENTED_EDGE ( 'NONE', *, *, #184, .F. ) ;
#66 = CARTESIAN_POINT ( 'NONE',  ( 0.0000000000000000000, -2.000000000000000000, 0.0000000000000000000 ) ) ;
#67 = FACE_OUTER_BOUND ( 'NONE', #188, .T. ) ;
#68 = EDGE_CURVE ( 'NONE', #105, #254, #2, .T. ) ;
#69 = SURFACE_STYLE_FILL_AREA ( #238 ) ;
#70 = LINE ( 'NONE', #94, #203 ) ;
#71 =( LENGTH_UNIT ( ) NAMED_UNIT ( * ) SI_UNIT ( .MILLI., .METRE. ) );
#72 = SURFACE_STYLE_USAGE ( .BOTH. , #40 ) ;
#73 = PRODUCT_DEFINITION_SHAPE ( 'NONE', 'NONE',  #267 ) ;
#74 = DIRECTION ( 'NONE',  ( 0.0000000000000000000, 0.0000000000000000000, -1.000000000000000000 ) ) ;
#75 = DIRECTION ( 'NONE',  ( -1.000000000000000000, 0.0000000000000000000, -0.0000000000000000000 ) ) ;
#76 = SHAPE_DEFINITION_REPRESENTATION ( #73, #200 ) ;
#77 = DIRECTION ( 'NONE',  ( 3.854941057726239100E-016, 0.0000000000000000000, 1.000000000000000000 ) ) ;
#78 = CARTESIAN_POINT ( 'NONE',  ( 9.000000000000005300, 2.000000000000000000, 9.000000000000000000 ) ) ;
#79 = APPLICATION_PROTOCOL_DEFINITION ( 'draft international standard', 'automotive_design', 1998, #213 ) ;
#80 = MANIFOLD_SOLID_BREP ( 'Âûðåç-Âûòÿíóòü1', #135 ) ;
#81 = EDGE_CURVE ( 'NONE', #149, #105, #28, .T. ) ;
#82 = SURFACE_SIDE_STYLE ('',( #69 ) ) ;
#83 = VERTEX_POINT ( 'NONE', #304 ) ;
#84 = PRESENTATION_LAYER_ASSIGNMENT (  '', '', ( #295 ) ) ;
#85 = APPLICATION_CONTEXT ( 'automotive_design' ) ;
#86 =( LENGTH_UNIT ( ) NAMED_UNIT ( * ) SI_UNIT ( .MILLI., .METRE. ) );
#87 = EDGE_CURVE ( 'NONE', #315, #337, #29, .T. ) ;
#88 = COLOUR_RGB ( '',0.6980392156862744700, 0.6980392156862744700, 0.6980392156862744700 ) ;
#89 = ORIENTED_EDGE ( 'NONE', *, *, #45, .F. ) ;
#90 =( NAMED_UNIT ( * ) PLANE_ANGLE_UNIT ( ) SI_UNIT ( $, .RADIAN. ) );
#91 = CARTESIAN_POINT ( 'NONE',  ( 2.755455298081544300E-016, -2.000000000000000000, -2.250000000000000000 ) ) ;
#92 = EDGE_CURVE ( 'NONE', #254, #105, #342, .T. ) ;
#93 = ORIENTED_EDGE ( 'NONE', *, *, #87, .T. ) ;
#94 = CARTESIAN_POINT ( 'NONE',  ( 8.999999999999998200, -2.000000000000000000, -8.999999999999998200 ) ) ;
#95 = ADVANCED_FACE ( 'NONE', ( #283 ), #46, .F. ) ;
#96 = CARTESIAN_POINT ( 'NONE',  ( 0.0000000000000000000, -2.000000000000000000, 2.250000000000000000 ) ) ;
#97 =( NAMED_UNIT ( * ) PLANE_ANGLE_UNIT ( ) SI_UNIT ( $, .RADIAN. ) );
#98 = DIRECTION ( 'NONE',  ( -0.0000000000000000000, -1.000000000000000000, -0.0000000000000000000 ) ) ;
#99 = FILL_AREA_STYLE ('',( #15 ) ) ;
#100 = DIRECTION ( 'NONE',  ( 0.0000000000000000000, 1.000000000000000000, 0.0000000000000000000 ) ) ;
#101 = ORIENTED_EDGE ( 'NONE', *, *, #4, .F. ) ;
#102 = DIRECTION ( 'NONE',  ( -0.0000000000000000000, -1.000000000000000000, -0.0000000000000000000 ) ) ;
#103 = CARTESIAN_POINT ( 'NONE',  ( 8.999999999999998200, 2.000000000000000000, -8.999999999999998200 ) ) ;
#104 = FACE_OUTER_BOUND ( 'NONE', #209, .T. ) ;
#105 = VERTEX_POINT ( 'NONE', #308 ) ;
#106 = EDGE_CURVE ( 'NONE', #285, #142, #263, .T. ) ;
#107 = DIRECTION ( 'NONE',  ( 1.000000000000000000, 0.0000000000000000000, 0.0000000000000000000 ) ) ;
#108 = VECTOR ( 'NONE', #31, 1000.000000000000000 ) ;
#109 = CARTESIAN_POINT ( 'NONE',  ( 0.0000000000000000000, 0.0000000000000000000, 0.0000000000000000000 ) ) ;
#110 = EDGE_LOOP ( 'NONE', ( #293, #225, #333, #117 ) ) ;
#111 =( NAMED_UNIT ( * ) SI_UNIT ( $, .STERADIAN. ) SOLID_ANGLE_UNIT ( ) );
#112 = AXIS2_PLACEMENT_3D ( 'NONE', #66, #137, #1 ) ;
#113 =( LENGTH_UNIT ( ) NAMED_UNIT ( * ) SI_UNIT ( .MILLI., .METRE. ) );
#114 = LINE ( 'NONE', #234, #42 ) ;
#115 = ORIENTED_EDGE ( 'NONE', *, *, #329, .F. ) ;
#116 =( LENGTH_UNIT ( ) NAMED_UNIT ( * ) SI_UNIT ( .MILLI., .METRE. ) );
#117 = ORIENTED_EDGE ( 'NONE', *, *, #106, .T. ) ;
#118 = ORIENTED_EDGE ( 'NONE', *, *, #45, .T. ) ;
#119 = AXIS2_PLACEMENT_3D ( 'NONE', #294, #229, #302 ) ;
#120 = DIRECTION ( 'NONE',  ( -9.637352644315597700E-017, 0.0000000000000000000, 1.000000000000000000 ) ) ;
#121 = DIRECTION ( 'NONE',  ( 1.000000000000000000, 0.0000000000000000000, 0.0000000000000000000 ) ) ;
#122 = EDGE_LOOP ( 'NONE', ( #54, #193, #30, #157 ) ) ;
#123 = CARTESIAN_POINT ( 'NONE',  ( 0.0000000000000000000, -2.000000000000000000, 0.0000000000000000000 ) ) ;
#124 = DIRECTION ( 'NONE',  ( 0.0000000000000000000, 1.000000000000000000, 0.0000000000000000000 ) ) ;
#125 =( NAMED_UNIT ( * ) SI_UNIT ( $, .STERADIAN. ) SOLID_ANGLE_UNIT ( ) );
#126 = ORIENTED_EDGE ( 'NONE', *, *, #24, .T. ) ;
#127 =( REPRESENTATION_RELATIONSHIP ('NONE','NONE', #201, #200 ) REPRESENTATION_RELATIONSHIP_WITH_TRANSFORMATION ( #32 )SHAPE_REPRESENTATION_RELATIONSHIP( ) );
#128 = PRODUCT_DEFINITION_SHAPE ( 'NONE', 'NONE',  #56 ) ;
#129 = VECTOR ( 'NONE', #102, 1000.000000000000000 ) ;
#130 = PRODUCT_CONTEXT ( 'NONE', #85, 'mechanical' ) ;
#131 = APPLICATION_CONTEXT ( 'automotive_design' ) ;
#132 = PRESENTATION_LAYER_ASSIGNMENT (  '', '', ( #252 ) ) ;
#133 = DIRECTION ( 'NONE',  ( 0.0000000000000000000, 0.0000000000000000000, 1.000000000000000000 ) ) ;
#134 =( NAMED_UNIT ( * ) SI_UNIT ( $, .STERADIAN. ) SOLID_ANGLE_UNIT ( ) );
#135 = CLOSED_SHELL ( 'NONE', ( #331, #95, #167, #197, #299, #202, #341, #146 ) ) ;
#136 = AXIS2_PLACEMENT_3D ( 'NONE', #59, #242, #183 ) ;
#137 = DIRECTION ( 'NONE',  ( -0.0000000000000000000, 1.000000000000000000, -0.0000000000000000000 ) ) ;
#138 = AXIS2_PLACEMENT_3D ( 'NONE', #109, #61, #107 ) ;
#139 = MECHANICAL_DESIGN_GEOMETRIC_PRESENTATION_REPRESENTATION (  '', ( #252 ), #191 ) ;
#140 = PRODUCT_DEFINITION_SHAPE ( 'NONE', 'NONE',  #343 ) ;
#141 = VECTOR ( 'NONE', #43, 1000.000000000000000 ) ;
#142 = VERTEX_POINT ( 'NONE', #260 ) ;
#143 = PRODUCT_DEFINITION_FORMATION_WITH_SPECIFIED_SOURCE ( 'ANY', '', #21, .NOT_KNOWN. ) ;
#144 = CARTESIAN_POINT ( 'NONE',  ( -9.000000000000000000, -2.000000000000000000, -9.000000000000000000 ) ) ;
#145 = UNCERTAINTY_MEASURE_WITH_UNIT (LENGTH_MEASURE( 1.000000000000000100E-005 ), #71, 'distance_accuracy_value', 'NONE');
#146 = ADVANCED_FACE ( 'NONE', ( #187 ), #41, .F. ) ;
#147 = PRESENTATION_STYLE_ASSIGNMENT (( #177 ) ) ;
#148 = CARTESIAN_POINT ( 'NONE',  ( -9.000000000000000000, 2.000000000000000000, -9.000000000000000000 ) ) ;
#149 = VERTEX_POINT ( 'NONE', #284 ) ;
#150 = CARTESIAN_POINT ( 'NONE',  ( 0.0000000000000000000, 2.000000000000000000, 0.0000000000000000000 ) ) ;
#151 = DIRECTION ( 'NONE',  ( -0.0000000000000000000, 1.000000000000000000, -0.0000000000000000000 ) ) ;
#152 =( GEOMETRIC_REPRESENTATION_CONTEXT ( 3 ) GLOBAL_UNCERTAINTY_ASSIGNED_CONTEXT ( ( #57 ) ) GLOBAL_UNIT_ASSIGNED_CONTEXT ( ( #207, #50, #125 ) ) REPRESENTATION_CONTEXT ( 'NONE', 'WORKASPACE' ) );
#153 = AXIS2_PLACEMENT_3D ( 'NONE', #123, #340, #287 ) ;
#154 = EDGE_CURVE ( 'NONE', #272, #315, #253, .T. ) ;
#155 = APPLICATION_PROTOCOL_DEFINITION ( 'draft international standard', 'automotive_design', 1998, #313 ) ;
#156 = SHAPE_REPRESENTATION_RELATIONSHIP ( 'NONE' , 'NONE' ,  #200, #27 ) ;
#157 = ORIENTED_EDGE ( 'NONE', *, *, #92, .T. ) ;
#158 =( GEOMETRIC_REPRESENTATION_CONTEXT ( 3 ) GLOBAL_UNCERTAINTY_ASSIGNED_CONTEXT ( ( #10 ) ) GLOBAL_UNIT_ASSIGNED_CONTEXT ( ( #316, #270, #134 ) ) REPRESENTATION_CONTEXT ( 'NONE', 'WORKASPACE' ) );
#159 = PLANE ( 'NONE',  #222 ) ;
#160 = LINE ( 'NONE', #282, #179 ) ;
#161 = VERTEX_POINT ( 'NONE', #48 ) ;
#162 = PRESENTATION_STYLE_ASSIGNMENT (( #62 ) ) ;
#163 = LINE ( 'NONE', #96, #12 ) ;
#164 = EDGE_LOOP ( 'NONE', ( #321, #47, #305, #101 ) ) ;
#165 = AXIS2_PLACEMENT_3D ( 'NONE', #279, #120, #303 ) ;
#166 = FACE_OUTER_BOUND ( 'NONE', #274, .T. ) ;
#167 = ADVANCED_FACE ( 'NONE', ( #166 ), #212, .F. ) ;
#168 = COLOUR_RGB ( '',0.6980392156862744700, 0.6980392156862744700, 0.6980392156862744700 ) ;
#169 = CARTESIAN_POINT ( 'NONE',  ( -9.000000000000000000, 2.000000000000000000, 9.000000000000000000 ) ) ;
#170 = CARTESIAN_POINT ( 'NONE',  ( 9.000000000000005300, 2.000000000000000000, 9.000000000000000000 ) ) ;
#171 = LINE ( 'NONE', #227, #141 ) ;
#172 = CARTESIAN_POINT ( 'NONE',  ( 0.0000000000000000000, -2.000000000000000000, 0.0000000000000000000 ) ) ;
#173 = ORIENTED_EDGE ( 'NONE', *, *, #322, .T. ) ;
#174 = DIRECTION ( 'NONE',  ( -1.000000000000000000, -0.0000000000000000000, -9.637352644315597700E-017 ) ) ;
#175 = CARTESIAN_POINT ( 'NONE',  ( 0.0000000000000000000, 2.000000000000000000, 0.0000000000000000000 ) ) ;
#176 = MECHANICAL_DESIGN_GEOMETRIC_PRESENTATION_REPRESENTATION (  '', ( #295 ), #152 ) ;
#177 = SURFACE_STYLE_USAGE ( .BOTH. , #204 ) ;
#178 = DIRECTION ( 'NONE',  ( -0.0000000000000000000, -1.000000000000000000, -0.0000000000000000000 ) ) ;
#179 = VECTOR ( 'NONE', #280, 1000.000000000000000 ) ;
#180 = ORIENTED_EDGE ( 'NONE', *, *, #68, .F. ) ;
#181 = UNCERTAINTY_MEASURE_WITH_UNIT (LENGTH_MEASURE( 1.000000000000000100E-005 ), #113, 'distance_accuracy_value', 'NONE');
#182 = SURFACE_STYLE_FILL_AREA ( #33 ) ;
#183 = DIRECTION ( 'NONE',  ( 1.000000000000000000, 0.0000000000000000000, 0.0000000000000000000 ) ) ;
#184 = EDGE_CURVE ( 'NONE', #83, #239, #319, .T. ) ;
#185 = CARTESIAN_POINT ( 'NONE',  ( -9.000000000000000000, -2.000000000000000000, -9.000000000000000000 ) ) ;
#186 = AXIS2_PLACEMENT_3D ( 'NONE', #172, #16, #233 ) ;
#187 = FACE_OUTER_BOUND ( 'NONE', #122, .T. ) ;
#188 = EDGE_LOOP ( 'NONE', ( #298, #243, #325, #89 ) ) ;
#189 =( NAMED_UNIT ( * ) PLANE_ANGLE_UNIT ( ) SI_UNIT ( $, .RADIAN. ) );
#190 = PRESENTATION_STYLE_ASSIGNMENT (( #248 ) ) ;
#191 =( GEOMETRIC_REPRESENTATION_CONTEXT ( 3 ) GLOBAL_UNCERTAINTY_ASSIGNED_CONTEXT ( ( #145 ) ) GLOBAL_UNIT_ASSIGNED_CONTEXT ( ( #71, #97, #199 ) ) REPRESENTATION_CONTEXT ( 'NONE', 'WORKASPACE' ) );
#192 = ORIENTED_EDGE ( 'NONE', *, *, #210, .T. ) ;
#193 = ORIENTED_EDGE ( 'NONE', *, *, #226, .F. ) ;
#194 = CARTESIAN_POINT ( 'NONE',  ( 0.0000000000000000000, -2.000000000000000000, 0.0000000000000000000 ) ) ;
#195 = VECTOR ( 'NONE', #296, 1000.000000000000000 ) ;
#196 = ORIENTED_EDGE ( 'NONE', *, *, #106, .F. ) ;
#197 = ADVANCED_FACE ( 'NONE', ( #297 ), #286, .F. ) ;
#198 = FILL_AREA_STYLE_COLOUR ( '', #88 ) ;
#199 =( NAMED_UNIT ( * ) SI_UNIT ( $, .STERADIAN. ) SOLID_ANGLE_UNIT ( ) );
#200 = SHAPE_REPRESENTATION ( 'SNSD.30.51.19. Ñóõàðü ïàçîâûé ñ ïðóæèííîé ïëàñòèíîé M6, ïàç 8(B79)B80B78B81C79_00', ( #320 ), #235 ) ;
#201 = SHAPE_REPRESENTATION ( 'SNSD.30.51.36. Ñóõàðü ïàçîâûé ñ ïðóæèííîé ïëàñòèíîé M5, ïàç 10(C79)', ( #138, #136 ), #211 ) ;
#202 = ADVANCED_FACE ( 'NONE', ( #25, #104 ), #19, .T. ) ;
#203 = VECTOR ( 'NONE', #276, 1000.000000000000000 ) ;
#204 = SURFACE_SIDE_STYLE ('',( #60 ) ) ;
#205 = FACE_OUTER_BOUND ( 'NONE', #164, .T. ) ;
#206 = PLANE ( 'NONE',  #165 ) ;
#207 =( LENGTH_UNIT ( ) NAMED_UNIT ( * ) SI_UNIT ( .MILLI., .METRE. ) );
#208 = DIRECTION ( 'NONE',  ( -1.000000000000000000, -0.0000000000000000000, -9.637352644315597700E-017 ) ) ;
#209 = EDGE_LOOP ( 'NONE', ( #292, #7, #126, #36 ) ) ;
#210 = EDGE_CURVE ( 'NONE', #337, #39, #160, .T. ) ;
#211 =( GEOMETRIC_REPRESENTATION_CONTEXT ( 3 ) GLOBAL_UNCERTAINTY_ASSIGNED_CONTEXT ( ( #301 ) ) GLOBAL_UNIT_ASSIGNED_CONTEXT ( ( #86, #269, #289 ) ) REPRESENTATION_CONTEXT ( 'NONE', 'WORKASPACE' ) );
#212 = PLANE ( 'NONE',  #339 ) ;
#213 = APPLICATION_CONTEXT ( 'automotive_design' ) ;
#214 = FILL_AREA_STYLE_COLOUR ( '', #317 ) ;
#215 = STYLED_ITEM ( 'NONE', ( #190 ), #331 ) ;
#216 = PRESENTATION_STYLE_ASSIGNMENT (( #72 ) ) ;
#217 = DIRECTION ( 'NONE',  ( 1.000000000000000000, 0.0000000000000000000, 0.0000000000000000000 ) ) ;
#218 = CARTESIAN_POINT ( 'NONE',  ( 0.0000000000000000000, 0.0000000000000000000, 0.0000000000000000000 ) ) ;
#219 = LINE ( 'NONE', #255, #278 ) ;
#220 = ORIENTED_EDGE ( 'NONE', *, *, #92, .F. ) ;
#221 = CARTESIAN_POINT ( 'NONE',  ( 0.0000000000000000000, 0.0000000000000000000, 0.0000000000000000000 ) ) ;
#222 = AXIS2_PLACEMENT_3D ( 'NONE', #223, #245, #273 ) ;
#223 = CARTESIAN_POINT ( 'NONE',  ( 0.0000000000000000000, -2.000000000000000000, 0.0000000000000000000 ) ) ;
#224 = CONTEXT_DEPENDENT_SHAPE_REPRESENTATION ( #127, #140 ) ;
#225 = ORIENTED_EDGE ( 'NONE', *, *, #154, .F. ) ;
#226 = EDGE_CURVE ( 'NONE', #161, #149, #237, .T. ) ;
#227 = CARTESIAN_POINT ( 'NONE',  ( 8.999999999999998200, 2.000000000000000000, -8.999999999999998200 ) ) ;
#228 = DIRECTION ( 'NONE',  ( 1.000000000000000000, 0.0000000000000000000, 0.0000000000000000000 ) ) ;
#229 = DIRECTION ( 'NONE',  ( 0.0000000000000000000, 1.000000000000000000, 0.0000000000000000000 ) ) ;
#230 = EDGE_LOOP ( 'NONE', ( #26, #173 ) ) ;
#231 = CARTESIAN_POINT ( 'NONE',  ( -9.000000000000000000, -2.000000000000000000, 9.000000000000000000 ) ) ;
#232 = AXIS2_PLACEMENT_3D ( 'NONE', #150, #124, #17 ) ;
#233 = DIRECTION ( 'NONE',  ( 0.0000000000000000000, 0.0000000000000000000, 1.000000000000000000 ) ) ;
#234 = CARTESIAN_POINT ( 'NONE',  ( -9.000000000000000000, 2.000000000000000000, -9.000000000000000000 ) ) ;
#235 =( GEOMETRIC_REPRESENTATION_CONTEXT ( 3 ) GLOBAL_UNCERTAINTY_ASSIGNED_CONTEXT ( ( #181 ) ) GLOBAL_UNIT_ASSIGNED_CONTEXT ( ( #113, #189, #111 ) ) REPRESENTATION_CONTEXT ( 'NONE', 'WORKASPACE' ) );
#236 = DIRECTION ( 'NONE',  ( 0.0000000000000000000, 0.0000000000000000000, -1.000000000000000000 ) ) ;
#237 = CIRCLE ( 'NONE', #186, 2.250000000000000000 ) ;
#238 = FILL_AREA_STYLE ('',( #214 ) ) ;
#239 = VERTEX_POINT ( 'NONE', #169 ) ;
#240 = PRODUCT_DEFINITION_CONTEXT ( 'detailed design', #213, 'design' ) ;
#241 = APPLICATION_PROTOCOL_DEFINITION ( 'draft international standard', 'automotive_design', 1998, #131 ) ;
#242 = DIRECTION ( 'NONE',  ( 0.0000000000000000000, 0.0000000000000000000, 1.000000000000000000 ) ) ;
#243 = ORIENTED_EDGE ( 'NONE', *, *, #87, .F. ) ;
#244 =( NAMED_UNIT ( * ) SI_UNIT ( $, .STERADIAN. ) SOLID_ANGLE_UNIT ( ) );
#245 = DIRECTION ( 'NONE',  ( 0.0000000000000000000, 1.000000000000000000, 0.0000000000000000000 ) ) ;
#246 = SHAPE_DEFINITION_REPRESENTATION ( #128, #201 ) ;
#247 = PRODUCT_RELATED_PRODUCT_CATEGORY ( 'part', '', ( #21 ) ) ;
#248 = SURFACE_STYLE_USAGE ( .BOTH. , #82 ) ;
#249 = VECTOR ( 'NONE', #178, 1000.000000000000000 ) ;
#250 = EDGE_LOOP ( 'NONE', ( #93, #115, #306, #311 ) ) ;
#251 = PRESENTATION_LAYER_ASSIGNMENT (  '', '', ( #275 ) ) ;
#252 = STYLED_ITEM ( 'NONE', ( #216 ), #80 ) ;
#253 = LINE ( 'NONE', #103, #249 ) ;
#254 = VERTEX_POINT ( 'NONE', #23 ) ;
#255 = CARTESIAN_POINT ( 'NONE',  ( -9.000000000000000000, 2.000000000000000000, 9.000000000000000000 ) ) ;
#256 = CARTESIAN_POINT ( 'NONE',  ( -9.000000000000000000, 2.000000000000000000, 9.000000000000000000 ) ) ;
#257 = COLOUR_RGB ( '',0.6980392156862744700, 0.6980392156862744700, 0.6980392156862744700 ) ;
#258 = CARTESIAN_POINT ( 'NONE',  ( -9.000000000000000000, 2.000000000000000000, -9.000000000000000000 ) ) ;
#259 = ORIENTED_EDGE ( 'NONE', *, *, #329, .T. ) ;
#260 = CARTESIAN_POINT ( 'NONE',  ( 9.000000000000005300, -2.000000000000000000, 9.000000000000000000 ) ) ;
#261 = DIRECTION ( 'NONE',  ( 0.0000000000000000000, -0.0000000000000000000, 1.000000000000000000 ) ) ;
#262 = CARTESIAN_POINT ( 'NONE',  ( -9.000000000000000000, 2.000000000000000000, -9.000000000000000000 ) ) ;
#263 = LINE ( 'NONE', #170, #129 ) ;
#264 = EDGE_LOOP ( 'NONE', ( #192, #328, #65, #259 ) ) ;
#265 = AXIS2_PLACEMENT_3D ( 'NONE', #49, #338, #77 ) ;
#266 = CARTESIAN_POINT ( 'NONE',  ( 8.999999999999998200, -2.000000000000000000, -8.999999999999998200 ) ) ;
#267 = PRODUCT_DEFINITION ( 'UNKNOWN', '', #5, #240 ) ;
#268 = APPLICATION_PROTOCOL_DEFINITION ( 'draft international standard', 'automotive_design', 1998, #85 ) ;
#269 =( NAMED_UNIT ( * ) PLANE_ANGLE_UNIT ( ) SI_UNIT ( $, .RADIAN. ) );
#270 =( NAMED_UNIT ( * ) PLANE_ANGLE_UNIT ( ) SI_UNIT ( $, .RADIAN. ) );
#271 = SURFACE_STYLE_FILL_AREA ( #11 ) ;
#272 = VERTEX_POINT ( 'NONE', #51 ) ;
#273 = DIRECTION ( 'NONE',  ( 0.0000000000000000000, -0.0000000000000000000, 1.000000000000000000 ) ) ;
#274 = EDGE_LOOP ( 'NONE', ( #118, #196, #290, #20 ) ) ;
#275 = STYLED_ITEM ( 'NONE', ( #162 ), #27 ) ;
#276 = DIRECTION ( 'NONE',  ( -3.854941057726239100E-016, -0.0000000000000000000, -1.000000000000000000 ) ) ;
#277 = CARTESIAN_POINT ( 'NONE',  ( -9.000000000000000000, -2.000000000000000000, 9.000000000000000000 ) ) ;
#278 = VECTOR ( 'NONE', #228, 1000.000000000000000 ) ;
#279 = CARTESIAN_POINT ( 'NONE',  ( -9.000000000000000000, 2.000000000000000000, -9.000000000000000000 ) ) ;
#280 = DIRECTION ( 'NONE',  ( 0.0000000000000000000, 0.0000000000000000000, 1.000000000000000000 ) ) ;
#281 = CYLINDRICAL_SURFACE ( 'NONE', #112, 2.250000000000000000 ) ;
#282 = CARTESIAN_POINT ( 'NONE',  ( -9.000000000000000000, -2.000000000000000000, -9.000000000000000000 ) ) ;
#283 = FACE_OUTER_BOUND ( 'NONE', #264, .T. ) ;
#284 = CARTESIAN_POINT ( 'NONE',  ( 2.755455298081544300E-016, -2.000000000000000000, -2.250000000000000000 ) ) ;
#285 = VERTEX_POINT ( 'NONE', #78 ) ;
#286 = PLANE ( 'NONE',  #265 ) ;
#287 = DIRECTION ( 'NONE',  ( 0.0000000000000000000, 0.0000000000000000000, 1.000000000000000000 ) ) ;
#288 = EDGE_CURVE ( 'NONE', #272, #83, #114, .T. ) ;
#289 =( NAMED_UNIT ( * ) SI_UNIT ( $, .STERADIAN. ) SOLID_ANGLE_UNIT ( ) );
#290 = ORIENTED_EDGE ( 'NONE', *, *, #13, .F. ) ;
#291 = SURFACE_SIDE_STYLE ('',( #182 ) ) ;
#292 = ORIENTED_EDGE ( 'NONE', *, *, #184, .T. ) ;
#293 = ORIENTED_EDGE ( 'NONE', *, *, #37, .T. ) ;
#294 = CARTESIAN_POINT ( 'NONE',  ( 0.0000000000000000000, 2.000000000000000000, 0.0000000000000000000 ) ) ;
#295 = STYLED_ITEM ( 'NONE', ( #147 ), #146 ) ;
#296 = DIRECTION ( 'NONE',  ( -0.0000000000000000000, -1.000000000000000000, -0.0000000000000000000 ) ) ;
#297 = FACE_OUTER_BOUND ( 'NONE', #110, .T. ) ;
#298 = ORIENTED_EDGE ( 'NONE', *, *, #210, .F. ) ;
#299 = ADVANCED_FACE ( 'NONE', ( #314 ), #206, .F. ) ;
#300 = DIRECTION ( 'NONE',  ( -0.0000000000000000000, 1.000000000000000000, -0.0000000000000000000 ) ) ;
#301 = UNCERTAINTY_MEASURE_WITH_UNIT (LENGTH_MEASURE( 1.000000000000000100E-005 ), #86, 'distance_accuracy_value', 'NONE');
#302 = DIRECTION ( 'NONE',  ( 0.0000000000000000000, 0.0000000000000000000, 1.000000000000000000 ) ) ;
#303 = DIRECTION ( 'NONE',  ( 1.000000000000000000, 0.0000000000000000000, 9.637352644315597700E-017 ) ) ;
#304 = CARTESIAN_POINT ( 'NONE',  ( -9.000000000000000000, 2.000000000000000000, -9.000000000000000000 ) ) ;
#305 = ORIENTED_EDGE ( 'NONE', *, *, #68, .T. ) ;
#306 = ORIENTED_EDGE ( 'NONE', *, *, #288, .F. ) ;
#307 = MECHANICAL_DESIGN_GEOMETRIC_PRESENTATION_REPRESENTATION (  '', ( #215 ), #44 ) ;
#308 = CARTESIAN_POINT ( 'NONE',  ( 2.755455298081544300E-016, 2.000000000000000000, -2.250000000000000000 ) ) ;
#309 = PRESENTATION_LAYER_ASSIGNMENT (  '', '', ( #215 ) ) ;
#310 = CIRCLE ( 'NONE', #153, 2.250000000000000000 ) ;
#311 = ORIENTED_EDGE ( 'NONE', *, *, #154, .T. ) ;
#312 = AXIS2_PLACEMENT_3D ( 'NONE', #262, #335, #74 ) ;
#313 = APPLICATION_CONTEXT ( 'automotive_design' ) ;
#314 = FACE_OUTER_BOUND ( 'NONE', #250, .T. ) ;
#315 = VERTEX_POINT ( 'NONE', #266 ) ;
#316 =( LENGTH_UNIT ( ) NAMED_UNIT ( * ) SI_UNIT ( .MILLI., .METRE. ) );
#317 = COLOUR_RGB ( '',0.6980392156862744700, 0.6980392156862744700, 0.6980392156862744700 ) ;
#318 = DIRECTION ( 'NONE',  ( 1.000000000000000000, 0.0000000000000000000, 0.0000000000000000000 ) ) ;
#319 = LINE ( 'NONE', #148, #35 ) ;
#320 = AXIS2_PLACEMENT_3D ( 'NONE', #218, #133, #318 ) ;
#321 = ORIENTED_EDGE ( 'NONE', *, *, #322, .F. ) ;
#322 = EDGE_CURVE ( 'NONE', #149, #161, #310, .T. ) ;
#323 = PRODUCT_DEFINITION_CONTEXT ( 'detailed design', #313, 'design' ) ;
#324 = LINE ( 'NONE', #231, #327 ) ;
#325 = ORIENTED_EDGE ( 'NONE', *, *, #37, .F. ) ;
#326 = FACE_BOUND ( 'NONE', #230, .T. ) ;
#327 = VECTOR ( 'NONE', #121, 1000.000000000000000 ) ;
#328 = ORIENTED_EDGE ( 'NONE', *, *, #58, .F. ) ;
#329 = EDGE_CURVE ( 'NONE', #83, #337, #53, .T. ) ;
#330 = UNCERTAINTY_MEASURE_WITH_UNIT (LENGTH_MEASURE( 1.000000000000000100E-005 ), #116, 'distance_accuracy_value', 'NONE');
#331 = ADVANCED_FACE ( 'NONE', ( #205 ), #281, .F. ) ;
#332 = MECHANICAL_DESIGN_GEOMETRIC_PRESENTATION_REPRESENTATION (  '', ( #275 ), #158 ) ;
#333 = ORIENTED_EDGE ( 'NONE', *, *, #24, .F. ) ;
#334 = DIRECTION ( 'NONE',  ( 0.0000000000000000000, 0.0000000000000000000, 1.000000000000000000 ) ) ;
#335 = DIRECTION ( 'NONE',  ( 1.000000000000000000, 0.0000000000000000000, 0.0000000000000000000 ) ) ;
#336 = CARTESIAN_POINT ( 'NONE',  ( -9.000000000000000000, 2.000000000000000000, 9.000000000000000000 ) ) ;
#337 = VERTEX_POINT ( 'NONE', #185 ) ;
#338 = DIRECTION ( 'NONE',  ( -1.000000000000000000, 0.0000000000000000000, 3.854941057726239100E-016 ) ) ;
#339 = AXIS2_PLACEMENT_3D ( 'NONE', #336, #236, #75 ) ;
#340 = DIRECTION ( 'NONE',  ( 0.0000000000000000000, 1.000000000000000000, 0.0000000000000000000 ) ) ;
#341 = ADVANCED_FACE ( 'NONE', ( #326, #67 ), #159, .F. ) ;
#342 = CIRCLE ( 'NONE', #232, 2.250000000000000000 ) ;
#343 = NEXT_ASSEMBLY_USAGE_OCCURRENCE ( 'NAUO1', ' ', ' ', #56, #267, $ ) ;
ENDSEC;
END-ISO-10303-21;
