ISO-10303-21;
HEADER;
FILE_DESCRIPTION (( 'STEP AP214' ),
    '1' );
FILE_NAME ('A217 Òðàïåöåèäàëüíûé âèíò 8õ531 ìì, 4-õ çàõîäíûé, øàã 2 ìì.STEP',
    '2019-09-11T09:58:03',
    ( 'Windows User' ),
    ( '' ),
    'SwSTEP 2.0',
    'SolidWorks 2018',
    '' );
FILE_SCHEMA (( 'AUTOMOTIVE_DESIGN' ));
ENDSEC;

DATA;
#1 = UNCERTAINTY_MEASURE_WITH_UNIT (LENGTH_MEASURE( 1.000000000000000082E-05 ), #117, 'distance_accuracy_value', 'NONE');
#2 =( NAMED_UNIT ( * ) SI_UNIT ( $, .STERADIAN. ) SOLID_ANGLE_UNIT ( ) );
#3 = ORIENTED_EDGE ( 'NONE', *, *, #32, .T. ) ;
#4 = EDGE_CURVE ( 'NONE', #61, #152, #165, .T. ) ;
#5 = PRESENTATION_STYLE_ASSIGNMENT (( #112 ) ) ;
#6 = EDGE_LOOP ( 'NONE', ( #156, #3, #19, #102 ) ) ;
#7 = PRESENTATION_STYLE_ASSIGNMENT (( #155 ) ) ;
#8 = ORIENTED_EDGE ( 'NONE', *, *, #4, .T. ) ;
#9 =( NAMED_UNIT ( * ) PLANE_ANGLE_UNIT ( ) SI_UNIT ( $, .RADIAN. ) );
#10 =( NAMED_UNIT ( * ) SI_UNIT ( $, .STERADIAN. ) SOLID_ANGLE_UNIT ( ) );
#11 = EDGE_LOOP ( 'NONE', ( #54, #148, #71, #67 ) ) ;
#12 =( LENGTH_UNIT ( ) NAMED_UNIT ( * ) SI_UNIT ( .MILLI., .METRE. ) );
#13 = CARTESIAN_POINT ( 'NONE',  ( 531.0000000000000000, 0.0000000000000000000, 0.0000000000000000000 ) ) ;
#14 = CARTESIAN_POINT ( 'NONE',  ( 531.0000000000000000, 0.0000000000000000000, 0.0000000000000000000 ) ) ;
#15 = SURFACE_STYLE_FILL_AREA ( #147 ) ;
#16 =( LENGTH_UNIT ( ) NAMED_UNIT ( * ) SI_UNIT ( .MILLI., .METRE. ) );
#17 = DIRECTION ( 'NONE',  ( 1.000000000000000000, 0.0000000000000000000, 0.0000000000000000000 ) ) ;
#18 = SURFACE_SIDE_STYLE ('',( #83 ) ) ;
#19 = ORIENTED_EDGE ( 'NONE', *, *, #62, .T. ) ;
#20 = COLOUR_RGB ( '',0.7960784313725489669, 0.8235294117647058432, 0.9372549019607843146 ) ;
#21 = EDGE_LOOP ( 'NONE', ( #91, #33 ) ) ;
#22 = SURFACE_STYLE_FILL_AREA ( #104 ) ;
#23 = ADVANCED_FACE ( 'NONE', ( #25 ), #73, .T. ) ;
#24 = DIRECTION ( 'NONE',  ( 0.0000000000000000000, 0.0000000000000000000, -1.000000000000000000 ) ) ;
#25 = FACE_OUTER_BOUND ( 'NONE', #11, .T. ) ;
#26 = DIRECTION ( 'NONE',  ( 1.000000000000000000, 0.0000000000000000000, 0.0000000000000000000 ) ) ;
#27 =( GEOMETRIC_REPRESENTATION_CONTEXT ( 3 ) GLOBAL_UNCERTAINTY_ASSIGNED_CONTEXT ( ( #120 ) ) GLOBAL_UNIT_ASSIGNED_CONTEXT ( ( #168, #115, #10 ) ) REPRESENTATION_CONTEXT ( 'NONE', 'WORKASPACE' ) );
#28 =( NAMED_UNIT ( * ) PLANE_ANGLE_UNIT ( ) SI_UNIT ( $, .RADIAN. ) );
#29 = DIRECTION ( 'NONE',  ( -1.000000000000000000, -0.0000000000000000000, -0.0000000000000000000 ) ) ;
#30 = CIRCLE ( 'NONE', #55, 4.000000000000000000 ) ;
#31 = APPLICATION_CONTEXT ( 'automotive_design' ) ;
#32 = EDGE_CURVE ( 'NONE', #152, #63, #142, .T. ) ;
#33 = ORIENTED_EDGE ( 'NONE', *, *, #62, .F. ) ;
#34 = AXIS2_PLACEMENT_3D ( 'NONE', #127, #158, #51 ) ;
#35 = SURFACE_SIDE_STYLE ('',( #137 ) ) ;
#36 = ORIENTED_EDGE ( 'NONE', *, *, #136, .T. ) ;
#37 = PRODUCT_DEFINITION ( 'UNKNOWN', '', #108, #141 ) ;
#38 = SURFACE_SIDE_STYLE ('',( #15 ) ) ;
#39 = STYLED_ITEM ( 'NONE', ( #5 ), #23 ) ;
#40 = DIRECTION ( 'NONE',  ( 0.0000000000000000000, 0.0000000000000000000, -1.000000000000000000 ) ) ;
#41 = PLANE ( 'NONE',  #34 ) ;
#42 =( NAMED_UNIT ( * ) SI_UNIT ( $, .STERADIAN. ) SOLID_ANGLE_UNIT ( ) );
#43 = CLOSED_SHELL ( 'NONE', ( #48, #23, #50, #140 ) ) ;
#44 =( LENGTH_UNIT ( ) NAMED_UNIT ( * ) SI_UNIT ( .MILLI., .METRE. ) );
#45 = DIRECTION ( 'NONE',  ( 1.000000000000000000, 0.0000000000000000000, 0.0000000000000000000 ) ) ;
#46 = FACE_OUTER_BOUND ( 'NONE', #6, .T. ) ;
#47 = EDGE_LOOP ( 'NONE', ( #8, #36 ) ) ;
#48 = ADVANCED_FACE ( 'NONE', ( #46 ), #53, .T. ) ;
#49 = FILL_AREA_STYLE_COLOUR ( '', #78 ) ;
#50 = ADVANCED_FACE ( 'NONE', ( #100 ), #41, .T. ) ;
#51 = DIRECTION ( 'NONE',  ( 0.0000000000000000000, 0.0000000000000000000, -1.000000000000000000 ) ) ;
#52 = CARTESIAN_POINT ( 'NONE',  ( 531.0000000000000000, 4.898587196589412829E-16, -4.000000000000000000 ) ) ;
#53 = CYLINDRICAL_SURFACE ( 'NONE', #134, 4.000000000000000000 ) ;
#54 = ORIENTED_EDGE ( 'NONE', *, *, #32, .F. ) ;
#55 = AXIS2_PLACEMENT_3D ( 'NONE', #125, #89, #169 ) ;
#56 = CARTESIAN_POINT ( 'NONE',  ( 531.0000000000000000, 0.0000000000000000000, 0.0000000000000000000 ) ) ;
#57 = UNCERTAINTY_MEASURE_WITH_UNIT (LENGTH_MEASURE( 1.000000000000000082E-05 ), #44, 'distance_accuracy_value', 'NONE');
#58 = CARTESIAN_POINT ( 'NONE',  ( 0.0000000000000000000, 0.0000000000000000000, 4.000000000000000000 ) ) ;
#59 =( NAMED_UNIT ( * ) PLANE_ANGLE_UNIT ( ) SI_UNIT ( $, .RADIAN. ) );
#60 = COLOUR_RGB ( '',0.7960784313725489669, 0.8235294117647058432, 0.9372549019607843146 ) ;
#61 = VERTEX_POINT ( 'NONE', #93 ) ;
#62 = EDGE_CURVE ( 'NONE', #63, #133, #88, .T. ) ;
#63 = VERTEX_POINT ( 'NONE', #69 ) ;
#64 = AXIS2_PLACEMENT_3D ( 'NONE', #170, #95, #65 ) ;
#65 = DIRECTION ( 'NONE',  ( 0.0000000000000000000, 0.0000000000000000000, -1.000000000000000000 ) ) ;
#66 = FACE_OUTER_BOUND ( 'NONE', #21, .T. ) ;
#67 = ORIENTED_EDGE ( 'NONE', *, *, #157, .T. ) ;
#68 = DIRECTION ( 'NONE',  ( 0.0000000000000000000, 0.0000000000000000000, 1.000000000000000000 ) ) ;
#69 = CARTESIAN_POINT ( 'NONE',  ( 0.0000000000000000000, 4.898587196589412829E-16, -4.000000000000000000 ) ) ;
#70 =( NAMED_UNIT ( * ) SI_UNIT ( $, .STERADIAN. ) SOLID_ANGLE_UNIT ( ) );
#71 = ORIENTED_EDGE ( 'NONE', *, *, #138, .T. ) ;
#72 = CARTESIAN_POINT ( 'NONE',  ( 0.0000000000000000000, 0.0000000000000000000, 0.0000000000000000000 ) ) ;
#73 = CYLINDRICAL_SURFACE ( 'NONE', #96, 4.000000000000000000 ) ;
#74 =( NAMED_UNIT ( * ) PLANE_ANGLE_UNIT ( ) SI_UNIT ( $, .RADIAN. ) );
#75 = PRESENTATION_LAYER_ASSIGNMENT (  '', '', ( #162 ) ) ;
#76 = PRESENTATION_STYLE_ASSIGNMENT (( #149 ) ) ;
#77 = VECTOR ( 'NONE', #145, 1000.000000000000000 ) ;
#78 = COLOUR_RGB ( '',0.7960784313725489669, 0.8235294117647058432, 0.9372549019607843146 ) ;
#79 =( GEOMETRIC_REPRESENTATION_CONTEXT ( 3 ) GLOBAL_UNCERTAINTY_ASSIGNED_CONTEXT ( ( #132 ) ) GLOBAL_UNIT_ASSIGNED_CONTEXT ( ( #12, #28, #42 ) ) REPRESENTATION_CONTEXT ( 'NONE', 'WORKASPACE' ) );
#80 = SURFACE_STYLE_USAGE ( .BOTH. , #82 ) ;
#81 = DIRECTION ( 'NONE',  ( 1.000000000000000000, 0.0000000000000000000, 0.0000000000000000000 ) ) ;
#82 = SURFACE_SIDE_STYLE ('',( #22 ) ) ;
#83 = SURFACE_STYLE_FILL_AREA ( #151 ) ;
#84 = PRESENTATION_LAYER_ASSIGNMENT (  '', '', ( #39 ) ) ;
#85 = UNCERTAINTY_MEASURE_WITH_UNIT (LENGTH_MEASURE( 1.000000000000000082E-05 ), #16, 'distance_accuracy_value', 'NONE');
#86 = AXIS2_PLACEMENT_3D ( 'NONE', #160, #128, #17 ) ;
#87 = AXIS2_PLACEMENT_3D ( 'NONE', #56, #26, #40 ) ;
#88 = CIRCLE ( 'NONE', #146, 4.000000000000000000 ) ;
#89 = DIRECTION ( 'NONE',  ( 1.000000000000000000, 0.0000000000000000000, 0.0000000000000000000 ) ) ;
#90 = MECHANICAL_DESIGN_GEOMETRIC_PRESENTATION_REPRESENTATION (  '', ( #123 ), #101 ) ;
#91 = ORIENTED_EDGE ( 'NONE', *, *, #157, .F. ) ;
#92 = FILL_AREA_STYLE_COLOUR ( '', #60 ) ;
#93 = CARTESIAN_POINT ( 'NONE',  ( 531.0000000000000000, 0.0000000000000000000, 4.000000000000000000 ) ) ;
#94 = AXIS2_PLACEMENT_3D ( 'NONE', #72, #45, #97 ) ;
#95 = DIRECTION ( 'NONE',  ( 1.000000000000000000, 0.0000000000000000000, 0.0000000000000000000 ) ) ;
#96 = AXIS2_PLACEMENT_3D ( 'NONE', #13, #119, #126 ) ;
#97 = DIRECTION ( 'NONE',  ( 0.0000000000000000000, 0.0000000000000000000, -1.000000000000000000 ) ) ;
#98 = ADVANCED_BREP_SHAPE_REPRESENTATION ( 'A217 T¨ðÿõ¡õøôðû¹ývù òøýª 8¿531 üü, 4-¿ ÷ð¿þôývù, °ðó 2 üü', ( #153, #86 ), #109 ) ;
#99 = MECHANICAL_DESIGN_GEOMETRIC_PRESENTATION_REPRESENTATION (  '', ( #39 ), #27 ) ;
#100 = FACE_OUTER_BOUND ( 'NONE', #47, .T. ) ;
#101 =( GEOMETRIC_REPRESENTATION_CONTEXT ( 3 ) GLOBAL_UNCERTAINTY_ASSIGNED_CONTEXT ( ( #1 ) ) GLOBAL_UNIT_ASSIGNED_CONTEXT ( ( #117, #9, #70 ) ) REPRESENTATION_CONTEXT ( 'NONE', 'WORKASPACE' ) );
#102 = ORIENTED_EDGE ( 'NONE', *, *, #138, .F. ) ;
#103 = FILL_AREA_STYLE_COLOUR ( '', #159 ) ;
#104 = FILL_AREA_STYLE ('',( #103 ) ) ;
#105 = PLANE ( 'NONE',  #64 ) ;
#106 = MECHANICAL_DESIGN_GEOMETRIC_PRESENTATION_REPRESENTATION (  '', ( #162 ), #79 ) ;
#107 = APPLICATION_CONTEXT ( 'automotive_design' ) ;
#108 = PRODUCT_DEFINITION_FORMATION_WITH_SPECIFIED_SOURCE ( 'ANY', '', #139, .NOT_KNOWN. ) ;
#109 =( GEOMETRIC_REPRESENTATION_CONTEXT ( 3 ) GLOBAL_UNCERTAINTY_ASSIGNED_CONTEXT ( ( #85 ) ) GLOBAL_UNIT_ASSIGNED_CONTEXT ( ( #16, #59, #2 ) ) REPRESENTATION_CONTEXT ( 'NONE', 'WORKASPACE' ) );
#110 = CIRCLE ( 'NONE', #94, 4.000000000000000000 ) ;
#111 = FILL_AREA_STYLE ('',( #49 ) ) ;
#112 = SURFACE_STYLE_USAGE ( .BOTH. , #35 ) ;
#113 = PRODUCT_DEFINITION_SHAPE ( 'NONE', 'NONE',  #37 ) ;
#114 = LINE ( 'NONE', #143, #131 ) ;
#115 =( NAMED_UNIT ( * ) PLANE_ANGLE_UNIT ( ) SI_UNIT ( $, .RADIAN. ) );
#116 = PRESENTATION_LAYER_ASSIGNMENT (  '', '', ( #123 ) ) ;
#117 =( LENGTH_UNIT ( ) NAMED_UNIT ( * ) SI_UNIT ( .MILLI., .METRE. ) );
#118 = DIRECTION ( 'NONE',  ( -1.000000000000000000, -0.0000000000000000000, -0.0000000000000000000 ) ) ;
#119 = DIRECTION ( 'NONE',  ( -1.000000000000000000, -0.0000000000000000000, -0.0000000000000000000 ) ) ;
#120 = UNCERTAINTY_MEASURE_WITH_UNIT (LENGTH_MEASURE( 1.000000000000000082E-05 ), #168, 'distance_accuracy_value', 'NONE');
#121 = PRODUCT_CONTEXT ( 'NONE', #31, 'mechanical' ) ;
#122 =( NAMED_UNIT ( * ) SI_UNIT ( $, .STERADIAN. ) SOLID_ANGLE_UNIT ( ) );
#123 = STYLED_ITEM ( 'NONE', ( #76 ), #48 ) ;
#124 = STYLED_ITEM ( 'NONE', ( #7 ), #98 ) ;
#125 = CARTESIAN_POINT ( 'NONE',  ( 531.0000000000000000, 0.0000000000000000000, 0.0000000000000000000 ) ) ;
#126 = DIRECTION ( 'NONE',  ( 0.0000000000000000000, 0.0000000000000000000, 1.000000000000000000 ) ) ;
#127 = CARTESIAN_POINT ( 'NONE',  ( 531.0000000000000000, 0.0000000000000000000, 0.0000000000000000000 ) ) ;
#128 = DIRECTION ( 'NONE',  ( 0.0000000000000000000, 0.0000000000000000000, 1.000000000000000000 ) ) ;
#129 = CARTESIAN_POINT ( 'NONE',  ( 0.0000000000000000000, 0.0000000000000000000, 0.0000000000000000000 ) ) ;
#130 = APPLICATION_PROTOCOL_DEFINITION ( 'draft international standard', 'automotive_design', 1998, #31 ) ;
#131 = VECTOR ( 'NONE', #118, 1000.000000000000000 ) ;
#132 = UNCERTAINTY_MEASURE_WITH_UNIT (LENGTH_MEASURE( 1.000000000000000082E-05 ), #12, 'distance_accuracy_value', 'NONE');
#133 = VERTEX_POINT ( 'NONE', #58 ) ;
#134 = AXIS2_PLACEMENT_3D ( 'NONE', #14, #29, #68 ) ;
#135 = PRESENTATION_LAYER_ASSIGNMENT (  '', '', ( #124 ) ) ;
#136 = EDGE_CURVE ( 'NONE', #152, #61, #30, .T. ) ;
#137 = SURFACE_STYLE_FILL_AREA ( #111 ) ;
#138 = EDGE_CURVE ( 'NONE', #61, #133, #114, .T. ) ;
#139 = PRODUCT ( 'A217 Òðàïåöåèäàëüíûé âèíò 8õ531 ìì, 4-õ çàõîäíûé, øàã 2 ìì', 'A217 Òðàïåöåèäàëüíûé âèíò 8õ531 ìì, 4-õ çàõîäíûé, øàã 2 ìì', '', ( #121 ) ) ;
#140 = ADVANCED_FACE ( 'NONE', ( #66 ), #105, .F. ) ;
#141 = PRODUCT_DEFINITION_CONTEXT ( 'detailed design', #107, 'design' ) ;
#142 = LINE ( 'NONE', #52, #77 ) ;
#143 = CARTESIAN_POINT ( 'NONE',  ( 531.0000000000000000, 0.0000000000000000000, 4.000000000000000000 ) ) ;
#144 = PRODUCT_RELATED_PRODUCT_CATEGORY ( 'part', '', ( #139 ) ) ;
#145 = DIRECTION ( 'NONE',  ( -1.000000000000000000, -0.0000000000000000000, -0.0000000000000000000 ) ) ;
#146 = AXIS2_PLACEMENT_3D ( 'NONE', #129, #81, #24 ) ;
#147 = FILL_AREA_STYLE ('',( #92 ) ) ;
#148 = ORIENTED_EDGE ( 'NONE', *, *, #4, .F. ) ;
#149 = SURFACE_STYLE_USAGE ( .BOTH. , #38 ) ;
#150 = MECHANICAL_DESIGN_GEOMETRIC_PRESENTATION_REPRESENTATION (  '', ( #124 ), #164 ) ;
#151 = FILL_AREA_STYLE ('',( #154 ) ) ;
#152 = VERTEX_POINT ( 'NONE', #167 ) ;
#153 = MANIFOLD_SOLID_BREP ( 'Áîáûøêà-Âûòÿíóòü1', #43 ) ;
#154 = FILL_AREA_STYLE_COLOUR ( '', #20 ) ;
#155 = SURFACE_STYLE_USAGE ( .BOTH. , #18 ) ;
#156 = ORIENTED_EDGE ( 'NONE', *, *, #136, .F. ) ;
#157 = EDGE_CURVE ( 'NONE', #133, #63, #110, .T. ) ;
#158 = DIRECTION ( 'NONE',  ( 1.000000000000000000, 0.0000000000000000000, 0.0000000000000000000 ) ) ;
#159 = COLOUR_RGB ( '',0.7960784313725489669, 0.8235294117647058432, 0.9372549019607843146 ) ;
#160 = CARTESIAN_POINT ( 'NONE',  ( 0.0000000000000000000, 0.0000000000000000000, 0.0000000000000000000 ) ) ;
#161 = APPLICATION_PROTOCOL_DEFINITION ( 'draft international standard', 'automotive_design', 1998, #107 ) ;
#162 = STYLED_ITEM ( 'NONE', ( #163 ), #153 ) ;
#163 = PRESENTATION_STYLE_ASSIGNMENT (( #80 ) ) ;
#164 =( GEOMETRIC_REPRESENTATION_CONTEXT ( 3 ) GLOBAL_UNCERTAINTY_ASSIGNED_CONTEXT ( ( #57 ) ) GLOBAL_UNIT_ASSIGNED_CONTEXT ( ( #44, #74, #122 ) ) REPRESENTATION_CONTEXT ( 'NONE', 'WORKASPACE' ) );
#165 = CIRCLE ( 'NONE', #87, 4.000000000000000000 ) ;
#166 = SHAPE_DEFINITION_REPRESENTATION ( #113, #98 ) ;
#167 = CARTESIAN_POINT ( 'NONE',  ( 531.0000000000000000, 4.898587196589412829E-16, -4.000000000000000000 ) ) ;
#168 =( LENGTH_UNIT ( ) NAMED_UNIT ( * ) SI_UNIT ( .MILLI., .METRE. ) );
#169 = DIRECTION ( 'NONE',  ( 0.0000000000000000000, 0.0000000000000000000, -1.000000000000000000 ) ) ;
#170 = CARTESIAN_POINT ( 'NONE',  ( 0.0000000000000000000, 0.0000000000000000000, 0.0000000000000000000 ) ) ;
ENDSEC;
END-ISO-10303-21;
