ISO-10303-21;
HEADER;
FILE_DESCRIPTION (( 'STEP AP214' ),
    '1' );
FILE_NAME ('1648S2 Ïðîôèëü àëþìèíèåâûé (óãîëîê) 16õ48õ2 (Àí. ñåðåáðî).STEP',
    '2026-03-06T20:01:53',
    ( '' ),
    ( '' ),
    'SwSTEP 2.0',
    'SolidWorks 2026',
    '' );
FILE_SCHEMA (( 'AUTOMOTIVE_DESIGN' ));
ENDSEC;

DATA;
#1 = CARTESIAN_POINT ( 'NONE',  ( 0.000000000000000000, 0.000000000000000000, 50.00000000000000000 ) ) ;
#2 = ADVANCED_FACE ( 'NONE', ( #150 ), #214, .F. ) ;
#3 = VECTOR ( 'NONE', #10, 1000.000000000000000 ) ;
#4 = DIRECTION ( 'NONE',  ( 0.000000000000000000, -0.000000000000000000, -1.000000000000000000 ) ) ;
#5 = FACE_OUTER_BOUND ( 'NONE', #29, .T. ) ;
#6 = FACE_OUTER_BOUND ( 'NONE', #51, .T. ) ;
#7 = VECTOR ( 'NONE', #231, 1000.000000000000000 ) ;
#8 = EDGE_CURVE ( 'NONE', #215, #132, #155, .T. ) ;
#9 = EDGE_CURVE ( 'NONE', #66, #246, #13, .T. ) ;
#10 = DIRECTION ( 'NONE',  ( -0.000000000000000000, -0.000000000000000000, -1.000000000000000000 ) ) ;
#11 = ORIENTED_EDGE ( 'NONE', *, *, #20, .T. ) ;
#12 = ORIENTED_EDGE ( 'NONE', *, *, #40, .F. ) ;
#13 = LINE ( 'NONE', #175, #138 ) ;
#14 = EDGE_CURVE ( 'NONE', #202, #74, #15, .T. ) ;
#15 = LINE ( 'NONE', #113, #80 ) ;
#16 = VECTOR ( 'NONE', #250, 1000.000000000000000 ) ;
#17 = VECTOR ( 'NONE', #237, 1000.000000000000000 ) ;
#18 = DIRECTION ( 'NONE',  ( -1.000000000000000000, 0.000000000000000000, -0.000000000000000000 ) ) ;
#19 = CARTESIAN_POINT ( 'NONE',  ( 16.00000000000000000, 0.000000000000000000, 50.00000000000000000 ) ) ;
#20 = EDGE_CURVE ( 'NONE', #67, #75, #53, .T. ) ;
#21 = EDGE_LOOP ( 'NONE', ( #205, #41, #27, #208 ) ) ;
#22 = DIRECTION ( 'NONE',  ( 0.000000000000000000, -0.000000000000000000, -1.000000000000000000 ) ) ;
#23 = ORIENTED_EDGE ( 'NONE', *, *, #153, .F. ) ;
#24 = AXIS2_PLACEMENT_3D ( 'NONE', #197, #115, #4 ) ;
#25 = LINE ( 'NONE', #60, #142 ) ;
#26 = DIRECTION ( 'NONE',  ( 0.000000000000000000, 1.000000000000000000, 0.000000000000000000 ) ) ;
#27 = ORIENTED_EDGE ( 'NONE', *, *, #233, .F. ) ;
#28 = AXIS2_PLACEMENT_3D ( 'NONE', #160, #103, #22 ) ;
#29 = EDGE_LOOP ( 'NONE', ( #102, #192, #123, #241, #106, #228 ) ) ;
#30 = APPLICATION_PROTOCOL_DEFINITION ( 'draft international standard', 'automotive_design', 1998, #247 ) ;
#31 = EDGE_CURVE ( 'NONE', #92, #215, #111, .T. ) ;
#32 = MECHANICAL_DESIGN_GEOMETRIC_PRESENTATION_REPRESENTATION (  '', ( #65 ), #37 ) ;
#33 = ORIENTED_EDGE ( 'NONE', *, *, #195, .T. ) ;
#34 = EDGE_CURVE ( 'NONE', #92, #163, #134, .T. ) ;
#35 = EDGE_LOOP ( 'NONE', ( #33, #222, #12, #229 ) ) ;
#36 = CARTESIAN_POINT ( 'NONE',  ( 2.000000000000000000, 45.00000000000000000, 50.00000000000000000 ) ) ;
#37 =( GEOMETRIC_REPRESENTATION_CONTEXT ( 3 ) GLOBAL_UNCERTAINTY_ASSIGNED_CONTEXT ( ( #77 ) ) GLOBAL_UNIT_ASSIGNED_CONTEXT ( ( #86, #165, #243 ) ) REPRESENTATION_CONTEXT ( 'NONE', 'WORKASPACE' ) );
#38 = CLOSED_SHELL ( 'NONE', ( #107, #70, #2, #144, #245, #91, #56, #211 ) ) ;
#39 = DIRECTION ( 'NONE',  ( 0.000000000000000000, 0.000000000000000000, 1.000000000000000000 ) ) ;
#40 = EDGE_CURVE ( 'NONE', #202, #92, #89, .T. ) ;
#41 = ORIENTED_EDGE ( 'NONE', *, *, #148, .F. ) ;
#42 = CARTESIAN_POINT ( 'NONE',  ( 0.000000000000000000, 0.000000000000000000, 50.00000000000000000 ) ) ;
#43 = CARTESIAN_POINT ( 'NONE',  ( 0.000000000000000000, 0.000000000000000000, 50.00000000000000000 ) ) ;
#44 = CARTESIAN_POINT ( 'NONE',  ( 2.000000000000000000, 2.000000000000000000, -50.00000000000000000 ) ) ;
#45 = ORIENTED_EDGE ( 'NONE', *, *, #34, .T. ) ;
#46 = DIRECTION ( 'NONE',  ( 0.000000000000000000, 0.000000000000000000, -1.000000000000000000 ) ) ;
#47 = AXIS2_PLACEMENT_3D ( 'NONE', #201, #225, #108 ) ;
#48 = PLANE ( 'NONE',  #28 ) ;
#49 = PRODUCT ( '1648S2 \X2\041f0440043e04440438043b044c\X0\ \X2\0430043b044e043c0438043d043804350432044b0439\X0\ (\X2\04430433043e043b043e043a\X0\) 16\X2\0445\X0\48\X2\0445\X0\2 (\X2\0410043d\X0\. \X2\044104350440043504310440043e\X0\)', '1648S2 \X2\041f0440043e04440438043b044c\X0\ \X2\0430043b044e043c0438043d043804350432044b0439\X0\ (\X2\04430433043e043b043e043a\X0\) 16\X2\0445\X0\48\X2\0445\X0\2 (\X2\0410043d\X0\. \X2\044104350440043504310440043e\X0\)', '', ( #68 ) ) ;
#50 = EDGE_CURVE ( 'NONE', #215, #67, #171, .T. ) ;
#51 = EDGE_LOOP ( 'NONE', ( #185, #72, #252, #45 ) ) ;
#52 = CARTESIAN_POINT ( 'NONE',  ( 0.000000000000000000, 0.000000000000000000, 0.000000000000000000 ) ) ;
#53 = LINE ( 'NONE', #232, #83 ) ;
#54 = DIRECTION ( 'NONE',  ( 0.000000000000000000, 0.000000000000000000, -1.000000000000000000 ) ) ;
#55 = ORIENTED_EDGE ( 'NONE', *, *, #100, .F. ) ;
#56 = ADVANCED_FACE ( 'NONE', ( #248 ), #154, .F. ) ;
#57 =( GEOMETRIC_REPRESENTATION_CONTEXT ( 3 ) GLOBAL_UNCERTAINTY_ASSIGNED_CONTEXT ( ( #174 ) ) GLOBAL_UNIT_ASSIGNED_CONTEXT ( ( #105, #85, #164 ) ) REPRESENTATION_CONTEXT ( 'NONE', 'WORKASPACE' ) );
#58 = CARTESIAN_POINT ( 'NONE',  ( 16.00000000000000000, 0.000000000000000000, 50.00000000000000000 ) ) ;
#59 = CARTESIAN_POINT ( 'NONE',  ( 2.000000000000000000, 45.00000000000000000, -50.00000000000000000 ) ) ;
#60 = CARTESIAN_POINT ( 'NONE',  ( 16.00000000000000000, 0.000000000000000000, -50.00000000000000000 ) ) ;
#61 = CARTESIAN_POINT ( 'NONE',  ( 2.000000000000000000, 45.00000000000000000, -50.00000000000000000 ) ) ;
#62 = CARTESIAN_POINT ( 'NONE',  ( 0.000000000000000000, 45.00000000000000000, -50.00000000000000000 ) ) ;
#63 = PLANE ( 'NONE',  #183 ) ;
#64 = EDGE_CURVE ( 'NONE', #246, #122, #79, .T. ) ;
#65 = STYLED_ITEM ( 'NONE', ( #149 ), #240 ) ;
#66 = VERTEX_POINT ( 'NONE', #135 ) ;
#67 = VERTEX_POINT ( 'NONE', #96 ) ;
#68 = PRODUCT_CONTEXT ( 'NONE', #203, 'mechanical' ) ;
#69 = SURFACE_SIDE_STYLE ('',( #143 ) ) ;
#70 = ADVANCED_FACE ( 'NONE', ( #218 ), #63, .F. ) ;
#71 = FILL_AREA_STYLE_COLOUR ( '', #109 ) ;
#72 = ORIENTED_EDGE ( 'NONE', *, *, #8, .F. ) ;
#73 = CARTESIAN_POINT ( 'NONE',  ( 2.000000000000000000, 45.00000000000000000, 50.00000000000000000 ) ) ;
#74 = VERTEX_POINT ( 'NONE', #177 ) ;
#75 = VERTEX_POINT ( 'NONE', #43 ) ;
#76 = DIRECTION ( 'NONE',  ( 1.000000000000000000, 0.000000000000000000, 0.000000000000000000 ) ) ;
#77 = UNCERTAINTY_MEASURE_WITH_UNIT (LENGTH_MEASURE( 1.000000000000000082E-05 ), #86, 'distance_accuracy_value', 'NONE');
#78 = LINE ( 'NONE', #61, #133 ) ;
#79 = LINE ( 'NONE', #194, #151 ) ;
#80 = VECTOR ( 'NONE', #156, 1000.000000000000000 ) ;
#81 = DIRECTION ( 'NONE',  ( 0.000000000000000000, -0.000000000000000000, 1.000000000000000000 ) ) ;
#82 = CARTESIAN_POINT ( 'NONE',  ( 2.000000000000000000, 2.000000000000000000, -50.00000000000000000 ) ) ;
#83 = VECTOR ( 'NONE', #190, 1000.000000000000000 ) ;
#84 = EDGE_LOOP ( 'NONE', ( #114, #130, #23, #98 ) ) ;
#85 =( NAMED_UNIT ( * ) PLANE_ANGLE_UNIT ( ) SI_UNIT ( $, .RADIAN. ) );
#86 =( LENGTH_UNIT ( ) NAMED_UNIT ( * ) SI_UNIT ( .MILLI., .METRE. ) );
#87 = CARTESIAN_POINT ( 'NONE',  ( 0.000000000000000000, 0.000000000000000000, -50.00000000000000000 ) ) ;
#88 = PRODUCT_DEFINITION_FORMATION_WITH_SPECIFIED_SOURCE ( 'ANY', '', #49, .NOT_KNOWN. ) ;
#89 = LINE ( 'NONE', #189, #217 ) ;
#90 = CARTESIAN_POINT ( 'NONE',  ( 0.000000000000000000, 45.00000000000000000, 50.00000000000000000 ) ) ;
#91 = ADVANCED_FACE ( 'NONE', ( #235 ), #48, .F. ) ;
#92 = VERTEX_POINT ( 'NONE', #216 ) ;
#93 = ORIENTED_EDGE ( 'NONE', *, *, #40, .T. ) ;
#94 = VECTOR ( 'NONE', #219, 1000.000000000000000 ) ;
#95 = DIRECTION ( 'NONE',  ( -0.000000000000000000, -0.000000000000000000, -1.000000000000000000 ) ) ;
#96 = CARTESIAN_POINT ( 'NONE',  ( 0.000000000000000000, 45.00000000000000000, 50.00000000000000000 ) ) ;
#97 = FACE_OUTER_BOUND ( 'NONE', #210, .T. ) ;
#98 = ORIENTED_EDGE ( 'NONE', *, *, #148, .T. ) ;
#99 = VECTOR ( 'NONE', #95, 1000.000000000000000 ) ;
#100 = EDGE_CURVE ( 'NONE', #75, #246, #253, .T. ) ;
#101 = LINE ( 'NONE', #161, #17 ) ;
#102 = ORIENTED_EDGE ( 'NONE', *, *, #9, .F. ) ;
#103 = DIRECTION ( 'NONE',  ( 0.000000000000000000, -1.000000000000000000, 0.000000000000000000 ) ) ;
#104 = ORIENTED_EDGE ( 'NONE', *, *, #31, .T. ) ;
#105 =( LENGTH_UNIT ( ) NAMED_UNIT ( * ) SI_UNIT ( .MILLI., .METRE. ) );
#106 = ORIENTED_EDGE ( 'NONE', *, *, #167, .F. ) ;
#107 = ADVANCED_FACE ( 'NONE', ( #97 ), #182, .F. ) ;
#108 = DIRECTION ( 'NONE',  ( 0.000000000000000000, 0.000000000000000000, 1.000000000000000000 ) ) ;
#109 = COLOUR_RGB ( '',0.7921568627450980005, 0.8196078431372548767, 0.9333333333333333481 ) ;
#110 = ORIENTED_EDGE ( 'NONE', *, *, #50, .F. ) ;
#111 = LINE ( 'NONE', #73, #147 ) ;
#112 = DIRECTION ( 'NONE',  ( -0.000000000000000000, -1.000000000000000000, -0.000000000000000000 ) ) ;
#113 = CARTESIAN_POINT ( 'NONE',  ( 16.00000000000000000, 2.000000000000000000, 50.00000000000000000 ) ) ;
#114 = ORIENTED_EDGE ( 'NONE', *, *, #167, .T. ) ;
#115 = DIRECTION ( 'NONE',  ( 0.000000000000000000, -1.000000000000000000, 0.000000000000000000 ) ) ;
#116 = DIRECTION ( 'NONE',  ( -0.000000000000000000, -0.000000000000000000, -1.000000000000000000 ) ) ;
#117 = DIRECTION ( 'NONE',  ( 0.000000000000000000, 1.000000000000000000, 0.000000000000000000 ) ) ;
#118 = CARTESIAN_POINT ( 'NONE',  ( 2.000000000000000000, 45.00000000000000000, 50.00000000000000000 ) ) ;
#119 = CARTESIAN_POINT ( 'NONE',  ( 16.00000000000000000, 0.000000000000000000, 50.00000000000000000 ) ) ;
#120 = DIRECTION ( 'NONE',  ( 0.000000000000000000, 0.000000000000000000, 1.000000000000000000 ) ) ;
#121 = DIRECTION ( 'NONE',  ( -0.000000000000000000, -0.000000000000000000, -1.000000000000000000 ) ) ;
#122 = VERTEX_POINT ( 'NONE', #159 ) ;
#123 = ORIENTED_EDGE ( 'NONE', *, *, #126, .F. ) ;
#124 = PLANE ( 'NONE',  #47 ) ;
#125 = APPLICATION_PROTOCOL_DEFINITION ( 'draft international standard', 'automotive_design', 1998, #203 ) ;
#126 = EDGE_CURVE ( 'NONE', #163, #132, #78, .T. ) ;
#127 = AXIS2_PLACEMENT_3D ( 'NONE', #58, #209, #39 ) ;
#128 = VECTOR ( 'NONE', #220, 1000.000000000000000 ) ;
#129 = CARTESIAN_POINT ( 'NONE',  ( 2.000000000000000000, 2.000000000000000000, 50.00000000000000000 ) ) ;
#130 = ORIENTED_EDGE ( 'NONE', *, *, #14, .F. ) ;
#131 = DIRECTION ( 'NONE',  ( -1.000000000000000000, 0.000000000000000000, -0.000000000000000000 ) ) ;
#132 = VERTEX_POINT ( 'NONE', #59 ) ;
#133 = VECTOR ( 'NONE', #158, 1000.000000000000000 ) ;
#134 = LINE ( 'NONE', #129, #3 ) ;
#135 = CARTESIAN_POINT ( 'NONE',  ( 0.000000000000000000, 45.00000000000000000, -50.00000000000000000 ) ) ;
#136 = PRODUCT_DEFINITION_CONTEXT ( 'detailed design', #247, 'design' ) ;
#137 = LINE ( 'NONE', #82, #239 ) ;
#138 = VECTOR ( 'NONE', #112, 1000.000000000000000 ) ;
#139 = LINE ( 'NONE', #234, #170 ) ;
#140 = LINE ( 'NONE', #19, #94 ) ;
#141 = FACE_OUTER_BOUND ( 'NONE', #35, .T. ) ;
#142 = VECTOR ( 'NONE', #117, 1000.000000000000000 ) ;
#143 = SURFACE_STYLE_FILL_AREA ( #207 ) ;
#144 = ADVANCED_FACE ( 'NONE', ( #141 ), #221, .F. ) ;
#145 = VERTEX_POINT ( 'NONE', #119 ) ;
#146 = LINE ( 'NONE', #238, #212 ) ;
#147 = VECTOR ( 'NONE', #169, 1000.000000000000000 ) ;
#148 = EDGE_CURVE ( 'NONE', #145, #122, #139, .T. ) ;
#149 = PRESENTATION_STYLE_ASSIGNMENT (( #226 ) ) ;
#150 = FACE_OUTER_BOUND ( 'NONE', #84, .T. ) ;
#151 = VECTOR ( 'NONE', #178, 1000.000000000000000 ) ;
#152 = ORIENTED_EDGE ( 'NONE', *, *, #50, .T. ) ;
#153 = EDGE_CURVE ( 'NONE', #145, #202, #140, .T. ) ;
#154 = PLANE ( 'NONE',  #213 ) ;
#155 = LINE ( 'NONE', #36, #16 ) ;
#156 = DIRECTION ( 'NONE',  ( -0.000000000000000000, -0.000000000000000000, -1.000000000000000000 ) ) ;
#157 = CARTESIAN_POINT ( 'NONE',  ( 16.00000000000000000, 2.000000000000000000, 50.00000000000000000 ) ) ;
#158 = DIRECTION ( 'NONE',  ( -0.000000000000000000, 1.000000000000000000, -0.000000000000000000 ) ) ;
#159 = CARTESIAN_POINT ( 'NONE',  ( 16.00000000000000000, 0.000000000000000000, -50.00000000000000000 ) ) ;
#160 = CARTESIAN_POINT ( 'NONE',  ( 0.000000000000000000, 45.00000000000000000, 50.00000000000000000 ) ) ;
#161 = CARTESIAN_POINT ( 'NONE',  ( 0.000000000000000000, 0.000000000000000000, 50.00000000000000000 ) ) ;
#162 = PRODUCT_DEFINITION_SHAPE ( 'NONE', 'NONE',  #173 ) ;
#163 = VERTEX_POINT ( 'NONE', #44 ) ;
#164 =( NAMED_UNIT ( * ) SI_UNIT ( $, .STERADIAN. ) SOLID_ANGLE_UNIT ( ) );
#165 =( NAMED_UNIT ( * ) PLANE_ANGLE_UNIT ( ) SI_UNIT ( $, .RADIAN. ) );
#166 = ORIENTED_EDGE ( 'NONE', *, *, #9, .T. ) ;
#167 = EDGE_CURVE ( 'NONE', #122, #74, #25, .T. ) ;
#168 = ORIENTED_EDGE ( 'NONE', *, *, #20, .F. ) ;
#169 = DIRECTION ( 'NONE',  ( -0.000000000000000000, 1.000000000000000000, -0.000000000000000000 ) ) ;
#170 = VECTOR ( 'NONE', #116, 1000.000000000000000 ) ;
#171 = LINE ( 'NONE', #90, #7 ) ;
#172 = ORIENTED_EDGE ( 'NONE', *, *, #233, .T. ) ;
#173 = PRODUCT_DEFINITION ( 'UNKNOWN', '', #88, #136 ) ;
#174 = UNCERTAINTY_MEASURE_WITH_UNIT (LENGTH_MEASURE( 1.000000000000000082E-05 ), #105, 'distance_accuracy_value', 'NONE');
#175 = CARTESIAN_POINT ( 'NONE',  ( 0.000000000000000000, 0.000000000000000000, -50.00000000000000000 ) ) ;
#176 = EDGE_LOOP ( 'NONE', ( #11, #172, #181, #93, #104, #152 ) ) ;
#177 = CARTESIAN_POINT ( 'NONE',  ( 16.00000000000000000, 2.000000000000000000, -50.00000000000000000 ) ) ;
#178 = DIRECTION ( 'NONE',  ( 1.000000000000000000, 0.000000000000000000, 0.000000000000000000 ) ) ;
#179 = DIRECTION ( 'NONE',  ( 0.000000000000000000, 0.000000000000000000, -1.000000000000000000 ) ) ;
#180 = CARTESIAN_POINT ( 'NONE',  ( 0.000000000000000000, 0.000000000000000000, 50.00000000000000000 ) ) ;
#181 = ORIENTED_EDGE ( 'NONE', *, *, #153, .T. ) ;
#182 = PLANE ( 'NONE',  #244 ) ;
#183 = AXIS2_PLACEMENT_3D ( 'NONE', #180, #26, #81 ) ;
#184 = SHAPE_DEFINITION_REPRESENTATION ( #162, #186 ) ;
#185 = ORIENTED_EDGE ( 'NONE', *, *, #126, .T. ) ;
#186 = ADVANCED_BREP_SHAPE_REPRESENTATION ( '1648S2 \X2\041f0440043e04440438043b044c\X0\ \X2\0430043b044e043c0438043d043804350432044b0439\X0\ (\X2\04430433043e043b043e043a\X0\) 16\X2\0445\X0\48\X2\0445\X0\2 (\X2\0410043d\X0\. \X2\044104350440043504310440043e\X0\)', ( #240, #198 ), #57 ) ;
#187 = EDGE_CURVE ( 'NONE', #132, #66, #236, .T. ) ;
#188 = ORIENTED_EDGE ( 'NONE', *, *, #187, .T. ) ;
#189 = CARTESIAN_POINT ( 'NONE',  ( 2.000000000000000000, 2.000000000000000000, 50.00000000000000000 ) ) ;
#190 = DIRECTION ( 'NONE',  ( -0.000000000000000000, -1.000000000000000000, -0.000000000000000000 ) ) ;
#191 = DIRECTION ( 'NONE',  ( -1.000000000000000000, -0.000000000000000000, -0.000000000000000000 ) ) ;
#192 = ORIENTED_EDGE ( 'NONE', *, *, #187, .F. ) ;
#193 = DIRECTION ( 'NONE',  ( -1.000000000000000000, -0.000000000000000000, -0.000000000000000000 ) ) ;
#194 = CARTESIAN_POINT ( 'NONE',  ( 0.000000000000000000, 0.000000000000000000, -50.00000000000000000 ) ) ;
#195 = EDGE_CURVE ( 'NONE', #74, #163, #137, .T. ) ;
#196 = ORIENTED_EDGE ( 'NONE', *, *, #242, .T. ) ;
#197 = CARTESIAN_POINT ( 'NONE',  ( 2.000000000000000000, 2.000000000000000000, 50.00000000000000000 ) ) ;
#198 = AXIS2_PLACEMENT_3D ( 'NONE', #52, #120, #224 ) ;
#199 = PLANE ( 'NONE',  #206 ) ;
#200 = CARTESIAN_POINT ( 'NONE',  ( 0.000000000000000000, 0.000000000000000000, -50.00000000000000000 ) ) ;
#201 = CARTESIAN_POINT ( 'NONE',  ( 2.000000000000000000, 45.00000000000000000, 50.00000000000000000 ) ) ;
#202 = VERTEX_POINT ( 'NONE', #157 ) ;
#203 = APPLICATION_CONTEXT ( 'automotive_design' ) ;
#204 = EDGE_LOOP ( 'NONE', ( #188, #223, #110, #249 ) ) ;
#205 = ORIENTED_EDGE ( 'NONE', *, *, #64, .T. ) ;
#206 = AXIS2_PLACEMENT_3D ( 'NONE', #200, #46, #18 ) ;
#207 = FILL_AREA_STYLE ('',( #71 ) ) ;
#208 = ORIENTED_EDGE ( 'NONE', *, *, #100, .T. ) ;
#209 = DIRECTION ( 'NONE',  ( -1.000000000000000000, 0.000000000000000000, 0.000000000000000000 ) ) ;
#210 = EDGE_LOOP ( 'NONE', ( #166, #55, #168, #196 ) ) ;
#211 = ADVANCED_FACE ( 'NONE', ( #5 ), #199, .T. ) ;
#212 = VECTOR ( 'NONE', #121, 1000.000000000000000 ) ;
#213 = AXIS2_PLACEMENT_3D ( 'NONE', #230, #54, #131 ) ;
#214 = PLANE ( 'NONE',  #127 ) ;
#215 = VERTEX_POINT ( 'NONE', #118 ) ;
#216 = CARTESIAN_POINT ( 'NONE',  ( 2.000000000000000000, 2.000000000000000000, 50.00000000000000000 ) ) ;
#217 = VECTOR ( 'NONE', #191, 1000.000000000000000 ) ;
#218 = FACE_OUTER_BOUND ( 'NONE', #21, .T. ) ;
#219 = DIRECTION ( 'NONE',  ( 0.000000000000000000, 1.000000000000000000, 0.000000000000000000 ) ) ;
#220 = DIRECTION ( 'NONE',  ( -1.000000000000000000, -0.000000000000000000, -0.000000000000000000 ) ) ;
#221 = PLANE ( 'NONE',  #24 ) ;
#222 = ORIENTED_EDGE ( 'NONE', *, *, #34, .F. ) ;
#223 = ORIENTED_EDGE ( 'NONE', *, *, #242, .F. ) ;
#224 = DIRECTION ( 'NONE',  ( 1.000000000000000000, 0.000000000000000000, 0.000000000000000000 ) ) ;
#225 = DIRECTION ( 'NONE',  ( -1.000000000000000000, 0.000000000000000000, 0.000000000000000000 ) ) ;
#226 = SURFACE_STYLE_USAGE ( .BOTH. , #69 ) ;
#227 = PRODUCT_RELATED_PRODUCT_CATEGORY ( 'part', '', ( #49 ) ) ;
#228 = ORIENTED_EDGE ( 'NONE', *, *, #64, .F. ) ;
#229 = ORIENTED_EDGE ( 'NONE', *, *, #14, .T. ) ;
#230 = CARTESIAN_POINT ( 'NONE',  ( 0.000000000000000000, 0.000000000000000000, 50.00000000000000000 ) ) ;
#231 = DIRECTION ( 'NONE',  ( -1.000000000000000000, -0.000000000000000000, -0.000000000000000000 ) ) ;
#232 = CARTESIAN_POINT ( 'NONE',  ( 0.000000000000000000, 0.000000000000000000, 50.00000000000000000 ) ) ;
#233 = EDGE_CURVE ( 'NONE', #75, #145, #101, .T. ) ;
#234 = CARTESIAN_POINT ( 'NONE',  ( 16.00000000000000000, 0.000000000000000000, 50.00000000000000000 ) ) ;
#235 = FACE_OUTER_BOUND ( 'NONE', #204, .T. ) ;
#236 = LINE ( 'NONE', #62, #128 ) ;
#237 = DIRECTION ( 'NONE',  ( 1.000000000000000000, 0.000000000000000000, 0.000000000000000000 ) ) ;
#238 = CARTESIAN_POINT ( 'NONE',  ( 0.000000000000000000, 45.00000000000000000, 50.00000000000000000 ) ) ;
#239 = VECTOR ( 'NONE', #193, 1000.000000000000000 ) ;
#240 = MANIFOLD_SOLID_BREP ( '\X2\0411043e0431044b0448043a0430\X0\-\X2\0412044b0442044f043d04430442044c\X0\1', #38 ) ;
#241 = ORIENTED_EDGE ( 'NONE', *, *, #195, .F. ) ;
#242 = EDGE_CURVE ( 'NONE', #67, #66, #146, .T. ) ;
#243 =( NAMED_UNIT ( * ) SI_UNIT ( $, .STERADIAN. ) SOLID_ANGLE_UNIT ( ) );
#244 = AXIS2_PLACEMENT_3D ( 'NONE', #42, #76, #179 ) ;
#245 = ADVANCED_FACE ( 'NONE', ( #6 ), #124, .F. ) ;
#246 = VERTEX_POINT ( 'NONE', #87 ) ;
#247 = APPLICATION_CONTEXT ( 'automotive_design' ) ;
#248 = FACE_OUTER_BOUND ( 'NONE', #176, .T. ) ;
#249 = ORIENTED_EDGE ( 'NONE', *, *, #8, .T. ) ;
#250 = DIRECTION ( 'NONE',  ( -0.000000000000000000, -0.000000000000000000, -1.000000000000000000 ) ) ;
#251 = PRESENTATION_LAYER_ASSIGNMENT (  '', '', ( #65 ) ) ;
#252 = ORIENTED_EDGE ( 'NONE', *, *, #31, .F. ) ;
#253 = LINE ( 'NONE', #1, #99 ) ;
ENDSEC;
END-ISO-10303-21;
