ISO-10303-21;
HEADER;
FILE_DESCRIPTION (( 'STEP AP214' ),
    '1' );
FILE_NAME ('SNSD.30.51.44. Ò-Áîëò Ì8õ20, ïàç 8(D23).STEP',
    '2014-12-01T12:31:06',
    ( 'XTreme.ws' ),
    ( 'XTreme.ws' ),
    'SwSTEP 2.0',
    'SolidWorks 2014',
    '' );
FILE_SCHEMA (( 'AUTOMOTIVE_DESIGN' ));
ENDSEC;

DATA;
#1 = EDGE_CURVE ( 'NONE', #166, #101, #279, .T. ) ;
#2 = ORIENTED_EDGE ( 'NONE', *, *, #1, .T. ) ;
#3 = LINE ( 'NONE', #228, #247 ) ;
#4 = EDGE_CURVE ( 'NONE', #344, #275, #174, .T. ) ;
#5 = VERTEX_POINT ( 'NONE', #88 ) ;
#6 = AXIS2_PLACEMENT_3D ( 'NONE', #39, #9, #358 ) ;
#7 = AXIS2_PLACEMENT_3D ( 'NONE', #331, #140, #260 ) ;
#8 = CARTESIAN_POINT ( 'NONE',  ( -3.050000000000000700, 2.200000000000000200, 3.900000000000000400 ) ) ;
#9 = DIRECTION ( 'NONE',  ( 0.0000000000000000000, -1.000000000000000000, 0.0000000000000000000 ) ) ;
#10 = CARTESIAN_POINT ( 'NONE',  ( -6.950000000000000200, 2.200000000000000200, 3.900000000000000400 ) ) ;
#11 = ORIENTED_EDGE ( 'NONE', *, *, #215, .T. ) ;
#12 = TOROIDAL_SURFACE ( 'NONE', #325, 3.799999999999999800, 0.2000000000000000100 ) ;
#13 = ADVANCED_FACE ( 'NONE', ( #205 ), #223, .T. ) ;
#14 = CARTESIAN_POINT ( 'NONE',  ( 0.0000000000000000000, 2.399999999999999500, 0.0000000000000000000 ) ) ;
#15 = CARTESIAN_POINT ( 'NONE',  ( 0.0000000000000000000, 2.200000000000000200, 0.0000000000000000000 ) ) ;
#16 = ORIENTED_EDGE ( 'NONE', *, *, #121, .T. ) ;
#17 = ORIENTED_EDGE ( 'NONE', *, *, #28, .F. ) ;
#18 = AXIS2_PLACEMENT_3D ( 'NONE', #144, #104, #75 ) ;
#19 = VECTOR ( 'NONE', #249, 1000.000000000000000 ) ;
#20 = DIRECTION ( 'NONE',  ( 0.0000000000000000000, 0.0000000000000000000, -1.000000000000000000 ) ) ;
#21 = EDGE_LOOP ( 'NONE', ( #374, #52, #194, #287, #259, #92 ) ) ;
#22 = PRODUCT_CONTEXT ( 'NONE', #345, 'mechanical' ) ;
#23 = DIRECTION ( 'NONE',  ( -0.0000000000000000000, -1.000000000000000000, 0.0000000000000000000 ) ) ;
#24 = CARTESIAN_POINT ( 'NONE',  ( 6.950000000000000200, 2.200000000000000200, -3.899999999999999900 ) ) ;
#25 = ORIENTED_EDGE ( 'NONE', *, *, #130, .T. ) ;
#26 = CIRCLE ( 'NONE', #149, 3.799999999999999800 ) ;
#27 = PLANE ( 'NONE',  #91 ) ;
#28 = EDGE_CURVE ( 'NONE', #344, #166, #321, .T. ) ;
#29 = UNCERTAINTY_MEASURE_WITH_UNIT (LENGTH_MEASURE( 1.000000000000000100E-005 ), #83, 'distance_accuracy_value', 'NONE');
#30 = EDGE_LOOP ( 'NONE', ( #363, #17, #84, #256, #196, #251 ) ) ;
#31 = VECTOR ( 'NONE', #305, 1000.000000000000000 ) ;
#32 = ORIENTED_EDGE ( 'NONE', *, *, #45, .T. ) ;
#33 = DIRECTION ( 'NONE',  ( -0.0000000000000000000, 1.000000000000000000, 0.0000000000000000000 ) ) ;
#34 = CARTESIAN_POINT ( 'NONE',  ( -6.950000000000000200, -2.200000000000000200, -3.900000000000000400 ) ) ;
#35 = DIRECTION ( 'NONE',  ( 0.0000000000000000000, -1.000000000000000000, 0.0000000000000000000 ) ) ;
#36 = CIRCLE ( 'NONE', #202, 3.900000000000000400 ) ;
#37 = DIRECTION ( 'NONE',  ( 0.0000000000000000000, 0.0000000000000000000, 1.000000000000000000 ) ) ;
#38 = CARTESIAN_POINT ( 'NONE',  ( 6.950000000000000200, 2.200000000000000200, 3.899999999999999900 ) ) ;
#39 = CARTESIAN_POINT ( 'NONE',  ( 0.0000000000000000000, 22.19999999999999900, 0.0000000000000000000 ) ) ;
#40 = CARTESIAN_POINT ( 'NONE',  ( 0.0000000000000000000, 2.399999999999999500, 3.799999999999999800 ) ) ;
#41 = ORIENTED_EDGE ( 'NONE', *, *, #167, .F. ) ;
#42 = DIRECTION ( 'NONE',  ( 0.0000000000000000000, 0.0000000000000000000, 1.000000000000000000 ) ) ;
#43 = ORIENTED_EDGE ( 'NONE', *, *, #197, .F. ) ;
#44 = PRODUCT ( 'SNSD.30.51.44. Ò-Áîëò Ì8õ20, ïàç 8(D23)', 'SNSD.30.51.44. Ò-Áîëò Ì8õ20, ïàç 8(D23)', '', ( #22 ) ) ;
#45 = EDGE_CURVE ( 'NONE', #211, #375, #296, .T. ) ;
#46 = AXIS2_PLACEMENT_3D ( 'NONE', #106, #324, #295 ) ;
#47 = FACE_OUTER_BOUND ( 'NONE', #353, .T. ) ;
#48 = DIRECTION ( 'NONE',  ( -0.0000000000000000000, 1.000000000000000000, -0.0000000000000000000 ) ) ;
#49 = DIRECTION ( 'NONE',  ( 0.0000000000000000000, 0.0000000000000000000, -1.000000000000000000 ) ) ;
#50 = AXIS2_PLACEMENT_3D ( 'NONE', #188, #252, #401 ) ;
#51 = LINE ( 'NONE', #341, #19 ) ;
#52 = ORIENTED_EDGE ( 'NONE', *, *, #143, .T. ) ;
#53 = EDGE_CURVE ( 'NONE', #224, #275, #404, .T. ) ;
#54 = ORIENTED_EDGE ( 'NONE', *, *, #255, .F. ) ;
#55 = CIRCLE ( 'NONE', #291, 3.600000000000000100 ) ;
#56 = CARTESIAN_POINT ( 'NONE',  ( 0.0000000000000000000, 22.19999999999999900, 0.0000000000000000000 ) ) ;
#57 = CARTESIAN_POINT ( 'NONE',  ( 6.950000000000000200, -2.200000000000000200, 4.336808689942017700E-016 ) ) ;
#58 = AXIS2_PLACEMENT_3D ( 'NONE', #265, #203, #169 ) ;
#59 = VECTOR ( 'NONE', #360, 1000.000000000000000 ) ;
#60 = VECTOR ( 'NONE', #362, 1000.000000000000000 ) ;
#61 = STYLED_ITEM ( 'NONE', ( #112 ), #190 ) ;
#62 = AXIS2_PLACEMENT_3D ( 'NONE', #40, #393, #204 ) ;
#63 = LINE ( 'NONE', #74, #59 ) ;
#64 = ORIENTED_EDGE ( 'NONE', *, *, #225, .T. ) ;
#65 = EDGE_CURVE ( 'NONE', #277, #211, #71, .T. ) ;
#66 = PLANE ( 'NONE',  #18 ) ;
#67 = ORIENTED_EDGE ( 'NONE', *, *, #45, .F. ) ;
#68 = FACE_OUTER_BOUND ( 'NONE', #21, .T. ) ;
#69 = DIRECTION ( 'NONE',  ( 1.000000000000000000, 0.0000000000000000000, 1.224646799147353200E-016 ) ) ;
#70 = DIRECTION ( 'NONE',  ( -0.0000000000000000000, -1.000000000000000000, -0.0000000000000000000 ) ) ;
#71 = LINE ( 'NONE', #234, #336 ) ;
#72 = EDGE_CURVE ( 'NONE', #375, #211, #396, .T. ) ;
#73 = CARTESIAN_POINT ( 'NONE',  ( -6.950000000000000200, 2.200000000000000200, -3.900000000000000400 ) ) ;
#74 = CARTESIAN_POINT ( 'NONE',  ( -6.950000000000000200, 2.200000000000000200, -3.900000000000000400 ) ) ;
#75 = DIRECTION ( 'NONE',  ( 0.0000000000000000000, -0.0000000000000000000, 1.000000000000000000 ) ) ;
#76 = VERTEX_POINT ( 'NONE', #290 ) ;
#77 = PRODUCT_DEFINITION_SHAPE ( 'NONE', 'NONE',  #348 ) ;
#78 = CARTESIAN_POINT ( 'NONE',  ( 0.0000000000000000000, 22.19999999999999900, -3.600000000000000100 ) ) ;
#79 = AXIS2_PLACEMENT_3D ( 'NONE', #56, #338, #49 ) ;
#80 = DIRECTION ( 'NONE',  ( -0.0000000000000000000, 1.000000000000000000, 0.0000000000000000000 ) ) ;
#81 = VECTOR ( 'NONE', #70, 1000.000000000000000 ) ;
#82 = DIRECTION ( 'NONE',  ( 0.0000000000000000000, 0.0000000000000000000, 1.000000000000000000 ) ) ;
#83 =( LENGTH_UNIT ( ) NAMED_UNIT ( * ) SI_UNIT ( .MILLI., .METRE. ) );
#84 = ORIENTED_EDGE ( 'NONE', *, *, #161, .F. ) ;
#85 = FACE_OUTER_BOUND ( 'NONE', #128, .T. ) ;
#86 = EDGE_LOOP ( 'NONE', ( #54, #67, #137, #328 ) ) ;
#87 = AXIS2_PLACEMENT_3D ( 'NONE', #266, #80, #82 ) ;
#88 = CARTESIAN_POINT ( 'NONE',  ( 4.653657836759942700E-016, 2.199999999999999700, -3.799999999999999800 ) ) ;
#89 = CARTESIAN_POINT ( 'NONE',  ( 0.0000000000000000000, 2.399999999999999500, -3.600000000000000100 ) ) ;
#90 = DIRECTION ( 'NONE',  ( 0.0000000000000000000, 0.0000000000000000000, 1.000000000000000000 ) ) ;
#91 = AXIS2_PLACEMENT_3D ( 'NONE', #284, #182, #372 ) ;
#92 = ORIENTED_EDGE ( 'NONE', *, *, #157, .T. ) ;
#93 = APPLICATION_CONTEXT ( 'automotive_design' ) ;
#94 = DIRECTION ( 'NONE',  ( 0.0000000000000000000, 0.0000000000000000000, 1.000000000000000000 ) ) ;
#95 = ORIENTED_EDGE ( 'NONE', *, *, #143, .F. ) ;
#96 = LINE ( 'NONE', #186, #385 ) ;
#97 = ORIENTED_EDGE ( 'NONE', *, *, #157, .F. ) ;
#98 = ORIENTED_EDGE ( 'NONE', *, *, #65, .F. ) ;
#99 = FACE_OUTER_BOUND ( 'NONE', #272, .T. ) ;
#100 = EDGE_CURVE ( 'NONE', #245, #214, #3, .T. ) ;
#101 = VERTEX_POINT ( 'NONE', #232 ) ;
#102 = EDGE_CURVE ( 'NONE', #211, #285, #162, .T. ) ;
#103 = LINE ( 'NONE', #73, #60 ) ;
#104 = DIRECTION ( 'NONE',  ( -0.0000000000000000000, 1.000000000000000000, 0.0000000000000000000 ) ) ;
#105 = CARTESIAN_POINT ( 'NONE',  ( 0.0000000000000000000, 2.200000000000000200, 0.0000000000000000000 ) ) ;
#106 = CARTESIAN_POINT ( 'NONE',  ( 0.0000000000000000000, 22.19999999999999900, 0.0000000000000000000 ) ) ;
#107 = MECHANICAL_DESIGN_GEOMETRIC_PRESENTATION_REPRESENTATION (  '', ( #61 ), #164 ) ;
#108 = DIRECTION ( 'NONE',  ( 0.0000000000000000000, 0.0000000000000000000, -1.000000000000000000 ) ) ;
#109 = ORIENTED_EDGE ( 'NONE', *, *, #100, .F. ) ;
#110 = PLANE ( 'NONE',  #394 ) ;
#111 = CARTESIAN_POINT ( 'NONE',  ( -3.050000000000000700, 2.200000000000000200, 4.336808689942017700E-016 ) ) ;
#112 = PRESENTATION_STYLE_ASSIGNMENT (( #273 ) ) ;
#113 = AXIS2_PLACEMENT_3D ( 'NONE', #246, #48, #90 ) ;
#114 = CARTESIAN_POINT ( 'NONE',  ( -6.950000000000000200, 2.200000000000000200, 0.0000000000000000000 ) ) ;
#115 = DIRECTION ( 'NONE',  ( -0.0000000000000000000, 1.000000000000000000, -0.0000000000000000000 ) ) ;
#116 = PLANE ( 'NONE',  #58 ) ;
#117 = ADVANCED_FACE ( 'NONE', ( #99 ), #151, .T. ) ;
#118 = ORIENTED_EDGE ( 'NONE', *, *, #185, .F. ) ;
#119 = CARTESIAN_POINT ( 'NONE',  ( 0.0000000000000000000, 22.19999999999999900, 0.0000000000000000000 ) ) ;
#120 = VERTEX_POINT ( 'NONE', #268 ) ;
#121 = EDGE_CURVE ( 'NONE', #245, #76, #226, .T. ) ;
#122 = LINE ( 'NONE', #391, #308 ) ;
#123 = EDGE_CURVE ( 'NONE', #349, #277, #55, .T. ) ;
#124 = VECTOR ( 'NONE', #337, 1000.000000000000000 ) ;
#125 = CARTESIAN_POINT ( 'NONE',  ( -6.950000000000000200, -7.715432893255071500, 0.0000000000000000000 ) ) ;
#126 = SURFACE_STYLE_USAGE ( .BOTH. , #403 ) ;
#127 = FACE_OUTER_BOUND ( 'NONE', #129, .T. ) ;
#128 = EDGE_LOOP ( 'NONE', ( #219, #384, #25, #148 ) ) ;
#129 = EDGE_LOOP ( 'NONE', ( #351, #11, #365, #244 ) ) ;
#130 = EDGE_CURVE ( 'NONE', #282, #101, #332, .T. ) ;
#131 = PRODUCT_RELATED_PRODUCT_CATEGORY ( 'part', '', ( #44 ) ) ;
#132 = FACE_OUTER_BOUND ( 'NONE', #159, .T. ) ;
#133 = AXIS2_PLACEMENT_3D ( 'NONE', #322, #170, #392 ) ;
#134 = VECTOR ( 'NONE', #171, 1000.000000000000000 ) ;
#135 = PRODUCT_DEFINITION_CONTEXT ( 'detailed design', #93, 'design' ) ;
#136 = ADVANCED_FACE ( 'NONE', ( #189 ), #380, .F. ) ;
#137 = ORIENTED_EDGE ( 'NONE', *, *, #102, .T. ) ;
#138 = ORIENTED_EDGE ( 'NONE', *, *, #100, .T. ) ;
#139 = CARTESIAN_POINT ( 'NONE',  ( 0.0000000000000000000, 2.399999999999999500, 0.0000000000000000000 ) ) ;
#140 = DIRECTION ( 'NONE',  ( -0.0000000000000000000, 1.000000000000000000, 0.0000000000000000000 ) ) ;
#141 = CARTESIAN_POINT ( 'NONE',  ( 4.408728476930471200E-016, 22.19999999999999900, 3.600000000000000100 ) ) ;
#142 = DIRECTION ( 'NONE',  ( 0.0000000000000000000, 0.0000000000000000000, 1.000000000000000000 ) ) ;
#143 = EDGE_CURVE ( 'NONE', #224, #282, #155, .T. ) ;
#144 = CARTESIAN_POINT ( 'NONE',  ( 0.0000000000000000000, -2.200000000000000200, 0.0000000000000000000 ) ) ;
#145 = ORIENTED_EDGE ( 'NONE', *, *, #102, .F. ) ;
#146 = ADVANCED_FACE ( 'NONE', ( #254 ), #12, .F. ) ;
#147 = DIRECTION ( 'NONE',  ( 0.0000000000000000000, -1.000000000000000000, -0.0000000000000000000 ) ) ;
#148 = ORIENTED_EDGE ( 'NONE', *, *, #361, .T. ) ;
#149 = AXIS2_PLACEMENT_3D ( 'NONE', #105, #147, #42 ) ;
#150 = VECTOR ( 'NONE', #221, 1000.000000000000000 ) ;
#151 = CYLINDRICAL_SURFACE ( 'NONE', #46, 3.600000000000000100 ) ;
#152 = DIRECTION ( 'NONE',  ( -0.0000000000000000000, 1.000000000000000000, -0.0000000000000000000 ) ) ;
#153 = DIRECTION ( 'NONE',  ( -1.000000000000000000, 0.0000000000000000000, 0.0000000000000000000 ) ) ;
#154 = CIRCLE ( 'NONE', #334, 3.900000000000000400 ) ;
#155 = LINE ( 'NONE', #10, #134 ) ;
#156 = SURFACE_STYLE_FILL_AREA ( #158 ) ;
#157 = EDGE_CURVE ( 'NONE', #187, #275, #122, .T. ) ;
#158 = FILL_AREA_STYLE ('',( #343 ) ) ;
#159 = EDGE_LOOP ( 'NONE', ( #98, #195, #64, #354 ) ) ;
#160 = ORIENTED_EDGE ( 'NONE', *, *, #379, .T. ) ;
#161 = EDGE_CURVE ( 'NONE', #76, #344, #192, .T. ) ;
#162 = CIRCLE ( 'NONE', #62, 0.2000000000000000900 ) ;
#163 = ADVANCED_FACE ( 'NONE', ( #241 ), #66, .F. ) ;
#164 =( GEOMETRIC_REPRESENTATION_CONTEXT ( 3 ) GLOBAL_UNCERTAINTY_ASSIGNED_CONTEXT ( ( #29 ) ) GLOBAL_UNIT_ASSIGNED_CONTEXT ( ( #83, #390, #210 ) ) REPRESENTATION_CONTEXT ( 'NONE', 'WORKASPACE' ) );
#165 = ORIENTED_EDGE ( 'NONE', *, *, #255, .T. ) ;
#166 = VERTEX_POINT ( 'NONE', #327 ) ;
#167 = EDGE_CURVE ( 'NONE', #214, #187, #103, .T. ) ;
#168 = DIRECTION ( 'NONE',  ( -0.0000000000000000000, 1.000000000000000000, 0.0000000000000000000 ) ) ;
#169 = DIRECTION ( 'NONE',  ( 0.0000000000000000000, 0.0000000000000000000, -1.000000000000000000 ) ) ;
#170 = DIRECTION ( 'NONE',  ( -3.120006251756847000E-017, 0.0000000000000000000, 1.000000000000000000 ) ) ;
#171 = DIRECTION ( 'NONE',  ( 1.000000000000000000, 0.0000000000000000000, -3.120006251756847000E-017 ) ) ;
#172 = ORIENTED_EDGE ( 'NONE', *, *, #161, .T. ) ;
#173 = EDGE_CURVE ( 'NONE', #277, #349, #262, .T. ) ;
#174 = LINE ( 'NONE', #125, #124 ) ;
#175 = DIRECTION ( 'NONE',  ( 0.0000000000000000000, 0.0000000000000000000, -1.000000000000000000 ) ) ;
#176 = CARTESIAN_POINT ( 'NONE',  ( 4.653657836759942700E-016, 2.399999999999999500, -3.799999999999999800 ) ) ;
#177 = EDGE_CURVE ( 'NONE', #5, #285, #355, .T. ) ;
#178 = FACE_OUTER_BOUND ( 'NONE', #239, .T. ) ;
#179 = AXIS2_PLACEMENT_3D ( 'NONE', #176, #69, #323 ) ;
#180 = FACE_BOUND ( 'NONE', #366, .T. ) ;
#181 = EDGE_LOOP ( 'NONE', ( #319, #97, #208, #172 ) ) ;
#182 = DIRECTION ( 'NONE',  ( -3.120006251756847000E-017, 0.0000000000000000000, -1.000000000000000000 ) ) ;
#183 = EDGE_LOOP ( 'NONE', ( #306, #165, #118, #145 ) ) ;
#184 = APPLICATION_PROTOCOL_DEFINITION ( 'draft international standard', 'automotive_design', 1998, #345 ) ;
#185 = EDGE_CURVE ( 'NONE', #285, #5, #26, .T. ) ;
#186 = CARTESIAN_POINT ( 'NONE',  ( 6.950000000000000200, -2.200000000000000200, -3.899999999999999900 ) ) ;
#187 = VERTEX_POINT ( 'NONE', #263 ) ;
#188 = CARTESIAN_POINT ( 'NONE',  ( 0.0000000000000000000, 0.0000000000000000000, 0.0000000000000000000 ) ) ;
#189 = FACE_OUTER_BOUND ( 'NONE', #86, .T. ) ;
#190 = MANIFOLD_SOLID_BREP ( 'Ñêðóãëåíèå1', #191 ) ;
#191 = CLOSED_SHELL ( 'NONE', ( #146, #117, #212, #288, #335, #257, #270, #163, #13, #301, #367, #193, #136 ) ) ;
#192 = LINE ( 'NONE', #261, #350 ) ;
#193 = ADVANCED_FACE ( 'NONE', ( #178 ), #297, .F. ) ;
#194 = ORIENTED_EDGE ( 'NONE', *, *, #381, .T. ) ;
#195 = ORIENTED_EDGE ( 'NONE', *, *, #173, .T. ) ;
#196 = ORIENTED_EDGE ( 'NONE', *, *, #250, .F. ) ;
#197 = EDGE_CURVE ( 'NONE', #187, #76, #63, .T. ) ;
#198 = FILL_AREA_STYLE_COLOUR ( '', #312 ) ;
#199 = PRESENTATION_LAYER_ASSIGNMENT (  '', '', ( #61 ) ) ;
#200 = DIRECTION ( 'NONE',  ( 0.0000000000000000000, -1.000000000000000000, -0.0000000000000000000 ) ) ;
#201 = DIRECTION ( 'NONE',  ( -0.0000000000000000000, 1.000000000000000000, 0.0000000000000000000 ) ) ;
#202 = AXIS2_PLACEMENT_3D ( 'NONE', #377, #23, #20 ) ;
#203 = DIRECTION ( 'NONE',  ( 1.000000000000000000, 0.0000000000000000000, 0.0000000000000000000 ) ) ;
#204 = DIRECTION ( 'NONE',  ( 0.0000000000000000000, 0.0000000000000000000, 1.000000000000000000 ) ) ;
#205 = FACE_OUTER_BOUND ( 'NONE', #218, .T. ) ;
#206 = CARTESIAN_POINT ( 'NONE',  ( 4.408728476930471200E-016, 2.399999999999999500, 3.600000000000000100 ) ) ;
#207 = DIRECTION ( 'NONE',  ( -0.0000000000000000000, -1.000000000000000000, -0.0000000000000000000 ) ) ;
#208 = ORIENTED_EDGE ( 'NONE', *, *, #197, .T. ) ;
#209 = ORIENTED_EDGE ( 'NONE', *, *, #173, .F. ) ;
#210 =( NAMED_UNIT ( * ) SI_UNIT ( $, .STERADIAN. ) SOLID_ANGLE_UNIT ( ) );
#211 = VERTEX_POINT ( 'NONE', #206 ) ;
#212 = ADVANCED_FACE ( 'NONE', ( #237 ), #116, .F. ) ;
#213 = AXIS2_PLACEMENT_3D ( 'NONE', #300, #33, #142 ) ;
#214 = VERTEX_POINT ( 'NONE', #233 ) ;
#215 = EDGE_CURVE ( 'NONE', #166, #224, #364, .T. ) ;
#216 = CARTESIAN_POINT ( 'NONE',  ( 6.950000000000000200, 2.200000000000000200, -3.899999999999999900 ) ) ;
#217 = CYLINDRICAL_SURFACE ( 'NONE', #398, 3.899999999999999900 ) ;
#218 = EDGE_LOOP ( 'NONE', ( #342, #138, #160, #399 ) ) ;
#219 = ORIENTED_EDGE ( 'NONE', *, *, #317, .T. ) ;
#220 = CARTESIAN_POINT ( 'NONE',  ( -3.050000000000000700, -7.715432893255071500, 4.336808689942017700E-016 ) ) ;
#221 = DIRECTION ( 'NONE',  ( -0.0000000000000000000, -0.0000000000000000000, -1.000000000000000000 ) ) ;
#222 = UNCERTAINTY_MEASURE_WITH_UNIT (LENGTH_MEASURE( 1.000000000000000100E-005 ), #278, 'distance_accuracy_value', 'NONE');
#223 = CYLINDRICAL_SURFACE ( 'NONE', #113, 3.900000000000000400 ) ;
#224 = VERTEX_POINT ( 'NONE', #8 ) ;
#225 = EDGE_CURVE ( 'NONE', #349, #375, #302, .T. ) ;
#226 = LINE ( 'NONE', #34, #346 ) ;
#227 = COLOUR_RGB ( '',1.000000000000000000, 0.9490196078431372100, 0.9098039215686274400 ) ;
#228 = CARTESIAN_POINT ( 'NONE',  ( 3.050000000000000700, -7.715432893255071500, -3.899999999999999900 ) ) ;
#229 = DIRECTION ( 'NONE',  ( 0.0000000000000000000, -1.000000000000000000, 0.0000000000000000000 ) ) ;
#230 =( GEOMETRIC_REPRESENTATION_CONTEXT ( 3 ) GLOBAL_UNCERTAINTY_ASSIGNED_CONTEXT ( ( #347 ) ) GLOBAL_UNIT_ASSIGNED_CONTEXT ( ( #280, #309, #243 ) ) REPRESENTATION_CONTEXT ( 'NONE', 'WORKASPACE' ) );
#231 = DIRECTION ( 'NONE',  ( -0.0000000000000000000, 1.000000000000000000, 0.0000000000000000000 ) ) ;
#232 = CARTESIAN_POINT ( 'NONE',  ( 6.950000000000000200, -2.200000000000000200, 3.899999999999999900 ) ) ;
#233 = CARTESIAN_POINT ( 'NONE',  ( 3.050000000000000700, 2.200000000000000200, -3.899999999999999900 ) ) ;
#234 = CARTESIAN_POINT ( 'NONE',  ( 4.408728476930471200E-016, 22.19999999999999900, 3.600000000000000100 ) ) ;
#235 = DIRECTION ( 'NONE',  ( -0.0000000000000000000, 1.000000000000000000, 0.0000000000000000000 ) ) ;
#236 = DIRECTION ( 'NONE',  ( -0.0000000000000000000, 1.000000000000000000, -0.0000000000000000000 ) ) ;
#237 = FACE_OUTER_BOUND ( 'NONE', #181, .T. ) ;
#238 = DIRECTION ( 'NONE',  ( 0.0000000000000000000, 0.0000000000000000000, 1.000000000000000000 ) ) ;
#239 = EDGE_LOOP ( 'NONE', ( #333, #209 ) ) ;
#240 = SURFACE_STYLE_FILL_AREA ( #387 ) ;
#241 = FACE_OUTER_BOUND ( 'NONE', #30, .T. ) ;
#242 = DIRECTION ( 'NONE',  ( -0.0000000000000000000, -0.0000000000000000000, -1.000000000000000000 ) ) ;
#243 =( NAMED_UNIT ( * ) SI_UNIT ( $, .STERADIAN. ) SOLID_ANGLE_UNIT ( ) );
#244 = ORIENTED_EDGE ( 'NONE', *, *, #4, .F. ) ;
#245 = VERTEX_POINT ( 'NONE', #292 ) ;
#246 = CARTESIAN_POINT ( 'NONE',  ( 3.050000000000000700, -7.715432893255071500, 0.0000000000000000000 ) ) ;
#247 = VECTOR ( 'NONE', #115, 1000.000000000000000 ) ;
#248 = APPLICATION_PROTOCOL_DEFINITION ( 'draft international standard', 'automotive_design', 1998, #93 ) ;
#249 = DIRECTION ( 'NONE',  ( -0.0000000000000000000, 1.000000000000000000, -0.0000000000000000000 ) ) ;
#250 = EDGE_CURVE ( 'NONE', #310, #245, #154, .T. ) ;
#251 = ORIENTED_EDGE ( 'NONE', *, *, #361, .F. ) ;
#252 = DIRECTION ( 'NONE',  ( 0.0000000000000000000, 0.0000000000000000000, 1.000000000000000000 ) ) ;
#253 = AXIS2_PLACEMENT_3D ( 'NONE', #119, #35, #175 ) ;
#254 = FACE_OUTER_BOUND ( 'NONE', #183, .T. ) ;
#255 = EDGE_CURVE ( 'NONE', #375, #5, #315, .T. ) ;
#256 = ORIENTED_EDGE ( 'NONE', *, *, #121, .F. ) ;
#257 = ADVANCED_FACE ( 'NONE', ( #274 ), #330, .F. ) ;
#258 = STYLED_ITEM ( 'NONE', ( #400 ), #383 ) ;
#259 = ORIENTED_EDGE ( 'NONE', *, *, #167, .T. ) ;
#260 = DIRECTION ( 'NONE',  ( 0.0000000000000000000, 0.0000000000000000000, 1.000000000000000000 ) ) ;
#261 = CARTESIAN_POINT ( 'NONE',  ( -6.950000000000000200, -2.200000000000000200, -3.900000000000000400 ) ) ;
#262 = CIRCLE ( 'NONE', #253, 3.600000000000000100 ) ;
#263 = CARTESIAN_POINT ( 'NONE',  ( -6.950000000000000200, 2.200000000000000200, -3.900000000000000400 ) ) ;
#264 = MECHANICAL_DESIGN_GEOMETRIC_PRESENTATION_REPRESENTATION (  '', ( #258 ), #230 ) ;
#265 = CARTESIAN_POINT ( 'NONE',  ( -6.950000000000000200, 2.200000000000000200, -3.900000000000000400 ) ) ;
#266 = CARTESIAN_POINT ( 'NONE',  ( -3.050000000000000700, -2.200000000000000600, 4.336808689942017700E-016 ) ) ;
#267 = CARTESIAN_POINT ( 'NONE',  ( 6.950000000000000200, 2.200000000000000200, 3.899999999999999900 ) ) ;
#268 = CARTESIAN_POINT ( 'NONE',  ( 6.950000000000001100, 2.200000000000000200, 4.336808689942017700E-016 ) ) ;
#269 = ORIENTED_EDGE ( 'NONE', *, *, #215, .F. ) ;
#270 = ADVANCED_FACE ( 'NONE', ( #180, #68 ), #110, .T. ) ;
#271 = DIRECTION ( 'NONE',  ( 0.0000000000000000000, 0.0000000000000000000, 1.000000000000000000 ) ) ;
#272 = EDGE_LOOP ( 'NONE', ( #283, #382, #32, #329 ) ) ;
#273 = SURFACE_STYLE_USAGE ( .BOTH. , #320 ) ;
#274 = FACE_OUTER_BOUND ( 'NONE', #286, .T. ) ;
#275 = VERTEX_POINT ( 'NONE', #114 ) ;
#276 = CARTESIAN_POINT ( 'NONE',  ( -6.950000000000000200, -2.200000000000000200, 3.900000000000000400 ) ) ;
#277 = VERTEX_POINT ( 'NONE', #141 ) ;
#278 =( LENGTH_UNIT ( ) NAMED_UNIT ( * ) SI_UNIT ( .MILLI., .METRE. ) );
#279 = LINE ( 'NONE', #276, #316 ) ;
#280 =( LENGTH_UNIT ( ) NAMED_UNIT ( * ) SI_UNIT ( .MILLI., .METRE. ) );
#281 = ORIENTED_EDGE ( 'NONE', *, *, #177, .T. ) ;
#282 = VERTEX_POINT ( 'NONE', #267 ) ;
#283 = ORIENTED_EDGE ( 'NONE', *, *, #123, .T. ) ;
#284 = CARTESIAN_POINT ( 'NONE',  ( -6.950000000000000200, 2.200000000000000200, 3.900000000000000400 ) ) ;
#285 = VERTEX_POINT ( 'NONE', #299 ) ;
#286 = EDGE_LOOP ( 'NONE', ( #41, #109, #16, #43 ) ) ;
#287 = ORIENTED_EDGE ( 'NONE', *, *, #379, .F. ) ;
#288 = ADVANCED_FACE ( 'NONE', ( #85 ), #314, .F. ) ;
#289 = CARTESIAN_POINT ( 'NONE',  ( 3.050000000000000700, -2.200000000000000600, 0.0000000000000000000 ) ) ;
#290 = CARTESIAN_POINT ( 'NONE',  ( -6.950000000000000200, -2.200000000000000200, -3.900000000000000400 ) ) ;
#291 = AXIS2_PLACEMENT_3D ( 'NONE', #357, #298, #108 ) ;
#292 = CARTESIAN_POINT ( 'NONE',  ( 3.050000000000000700, -2.200000000000000600, -3.899999999999999900 ) ) ;
#293 = DIRECTION ( 'NONE',  ( 0.0000000000000000000, 0.0000000000000000000, 1.000000000000000000 ) ) ;
#294 = CARTESIAN_POINT ( 'NONE',  ( -3.050000000000000700, -7.715432893255071500, 3.900000000000000400 ) ) ;
#295 = DIRECTION ( 'NONE',  ( 0.0000000000000000000, 0.0000000000000000000, -1.000000000000000000 ) ) ;
#296 = CIRCLE ( 'NONE', #7, 3.600000000000000100 ) ;
#297 = PLANE ( 'NONE',  #6 ) ;
#298 = DIRECTION ( 'NONE',  ( 0.0000000000000000000, -1.000000000000000000, 0.0000000000000000000 ) ) ;
#299 = CARTESIAN_POINT ( 'NONE',  ( 0.0000000000000000000, 2.199999999999999700, 3.799999999999999800 ) ) ;
#300 = CARTESIAN_POINT ( 'NONE',  ( 0.0000000000000000000, 2.399999999999999500, 0.0000000000000000000 ) ) ;
#301 = ADVANCED_FACE ( 'NONE', ( #127 ), #217, .T. ) ;
#302 = LINE ( 'NONE', #78, #31 ) ;
#303 = ORIENTED_EDGE ( 'NONE', *, *, #185, .T. ) ;
#304 = AXIS2_PLACEMENT_3D ( 'NONE', #326, #200, #37 ) ;
#305 = DIRECTION ( 'NONE',  ( 0.0000000000000000000, -1.000000000000000000, 0.0000000000000000000 ) ) ;
#306 = ORIENTED_EDGE ( 'NONE', *, *, #72, .F. ) ;
#307 = DIRECTION ( 'NONE',  ( 0.0000000000000000000, -0.0000000000000000000, 1.000000000000000000 ) ) ;
#308 = VECTOR ( 'NONE', #271, 1000.000000000000000 ) ;
#309 =( NAMED_UNIT ( * ) PLANE_ANGLE_UNIT ( ) SI_UNIT ( $, .RADIAN. ) );
#310 = VERTEX_POINT ( 'NONE', #57 ) ;
#311 = DIRECTION ( 'NONE',  ( 0.0000000000000000000, 0.0000000000000000000, 1.000000000000000000 ) ) ;
#312 = COLOUR_RGB ( '',1.000000000000000000, 0.9490196078431372100, 0.9098039215686274400 ) ;
#313 = CARTESIAN_POINT ( 'NONE',  ( 0.0000000000000000000, 22.19999999999999900, -3.600000000000000100 ) ) ;
#314 = PLANE ( 'NONE',  #369 ) ;
#315 = CIRCLE ( 'NONE', #179, 0.2000000000000000900 ) ;
#316 = VECTOR ( 'NONE', #340, 1000.000000000000000 ) ;
#317 = EDGE_CURVE ( 'NONE', #310, #120, #51, .T. ) ;
#318 = AXIS2_PLACEMENT_3D ( 'NONE', #111, #207, #389 ) ;
#319 = ORIENTED_EDGE ( 'NONE', *, *, #4, .T. ) ;
#320 = SURFACE_SIDE_STYLE ('',( #240 ) ) ;
#321 = CIRCLE ( 'NONE', #87, 3.899999999999999900 ) ;
#322 = CARTESIAN_POINT ( 'NONE',  ( -6.950000000000000200, 2.200000000000000200, -3.900000000000000400 ) ) ;
#323 = DIRECTION ( 'NONE',  ( 1.224646799147350700E-016, 0.0000000000000000000, -1.000000000000000000 ) ) ;
#324 = DIRECTION ( 'NONE',  ( 0.0000000000000000000, -1.000000000000000000, 0.0000000000000000000 ) ) ;
#325 = AXIS2_PLACEMENT_3D ( 'NONE', #14, #201, #293 ) ;
#326 = CARTESIAN_POINT ( 'NONE',  ( 0.0000000000000000000, 2.200000000000000200, 0.0000000000000000000 ) ) ;
#327 = CARTESIAN_POINT ( 'NONE',  ( -3.050000000000000700, -2.200000000000000600, 3.900000000000000400 ) ) ;
#328 = ORIENTED_EDGE ( 'NONE', *, *, #177, .F. ) ;
#329 = ORIENTED_EDGE ( 'NONE', *, *, #225, .F. ) ;
#330 = PLANE ( 'NONE',  #133 ) ;
#331 = CARTESIAN_POINT ( 'NONE',  ( 0.0000000000000000000, 2.399999999999999500, 0.0000000000000000000 ) ) ;
#332 = LINE ( 'NONE', #38, #81 ) ;
#333 = ORIENTED_EDGE ( 'NONE', *, *, #123, .F. ) ;
#334 = AXIS2_PLACEMENT_3D ( 'NONE', #289, #168, #356 ) ;
#335 = ADVANCED_FACE ( 'NONE', ( #47 ), #27, .F. ) ;
#336 = VECTOR ( 'NONE', #229, 1000.000000000000000 ) ;
#337 = DIRECTION ( 'NONE',  ( -0.0000000000000000000, 1.000000000000000000, -0.0000000000000000000 ) ) ;
#338 = DIRECTION ( 'NONE',  ( 0.0000000000000000000, -1.000000000000000000, 0.0000000000000000000 ) ) ;
#339 = ORIENTED_EDGE ( 'NONE', *, *, #130, .F. ) ;
#340 = DIRECTION ( 'NONE',  ( 1.000000000000000000, 0.0000000000000000000, -3.120006251756847000E-017 ) ) ;
#341 = CARTESIAN_POINT ( 'NONE',  ( 6.950000000000001100, -7.715432893255071500, 4.336808689942017700E-016 ) ) ;
#342 = ORIENTED_EDGE ( 'NONE', *, *, #250, .T. ) ;
#343 = FILL_AREA_STYLE_COLOUR ( '', #227 ) ;
#344 = VERTEX_POINT ( 'NONE', #402 ) ;
#345 = APPLICATION_CONTEXT ( 'automotive_design' ) ;
#346 = VECTOR ( 'NONE', #386, 1000.000000000000000 ) ;
#347 = UNCERTAINTY_MEASURE_WITH_UNIT (LENGTH_MEASURE( 1.000000000000000100E-005 ), #280, 'distance_accuracy_value', 'NONE');
#348 = PRODUCT_DEFINITION ( 'UNKNOWN', '', #388, #135 ) ;
#349 = VERTEX_POINT ( 'NONE', #313 ) ;
#350 = VECTOR ( 'NONE', #359, 1000.000000000000000 ) ;
#351 = ORIENTED_EDGE ( 'NONE', *, *, #28, .T. ) ;
#352 = CYLINDRICAL_SURFACE ( 'NONE', #79, 3.600000000000000100 ) ;
#353 = EDGE_LOOP ( 'NONE', ( #95, #269, #2, #339 ) ) ;
#354 = ORIENTED_EDGE ( 'NONE', *, *, #72, .T. ) ;
#355 = CIRCLE ( 'NONE', #304, 3.799999999999999800 ) ;
#356 = DIRECTION ( 'NONE',  ( 0.0000000000000000000, 0.0000000000000000000, 1.000000000000000000 ) ) ;
#357 = CARTESIAN_POINT ( 'NONE',  ( 0.0000000000000000000, 22.19999999999999900, 0.0000000000000000000 ) ) ;
#358 = DIRECTION ( 'NONE',  ( 0.0000000000000000000, -0.0000000000000000000, -1.000000000000000000 ) ) ;
#359 = DIRECTION ( 'NONE',  ( 0.0000000000000000000, 0.0000000000000000000, 1.000000000000000000 ) ) ;
#360 = DIRECTION ( 'NONE',  ( -0.0000000000000000000, -1.000000000000000000, -0.0000000000000000000 ) ) ;
#361 = EDGE_CURVE ( 'NONE', #101, #310, #96, .T. ) ;
#362 = DIRECTION ( 'NONE',  ( -1.000000000000000000, -0.0000000000000000000, -3.120006251756847000E-017 ) ) ;
#363 = ORIENTED_EDGE ( 'NONE', *, *, #1, .F. ) ;
#364 = LINE ( 'NONE', #294, #368 ) ;
#365 = ORIENTED_EDGE ( 'NONE', *, *, #53, .T. ) ;
#366 = EDGE_LOOP ( 'NONE', ( #303, #281 ) ) ;
#367 = ADVANCED_FACE ( 'NONE', ( #132 ), #352, .T. ) ;
#368 = VECTOR ( 'NONE', #236, 1000.000000000000000 ) ;
#369 = AXIS2_PLACEMENT_3D ( 'NONE', #216, #153, #94 ) ;
#370 =( NAMED_UNIT ( * ) PLANE_ANGLE_UNIT ( ) SI_UNIT ( $, .RADIAN. ) );
#371 =( GEOMETRIC_REPRESENTATION_CONTEXT ( 3 ) GLOBAL_UNCERTAINTY_ASSIGNED_CONTEXT ( ( #222 ) ) GLOBAL_UNIT_ASSIGNED_CONTEXT ( ( #278, #370, #376 ) ) REPRESENTATION_CONTEXT ( 'NONE', 'WORKASPACE' ) );
#372 = DIRECTION ( 'NONE',  ( -1.000000000000000000, 0.0000000000000000000, 3.120006251756847000E-017 ) ) ;
#373 = LINE ( 'NONE', #24, #150 ) ;
#374 = ORIENTED_EDGE ( 'NONE', *, *, #53, .F. ) ;
#375 = VERTEX_POINT ( 'NONE', #89 ) ;
#376 =( NAMED_UNIT ( * ) SI_UNIT ( $, .STERADIAN. ) SOLID_ANGLE_UNIT ( ) );
#377 = CARTESIAN_POINT ( 'NONE',  ( 3.050000000000000700, 2.200000000000000200, 0.0000000000000000000 ) ) ;
#378 = PRESENTATION_LAYER_ASSIGNMENT (  '', '', ( #258 ) ) ;
#379 = EDGE_CURVE ( 'NONE', #214, #120, #36, .T. ) ;
#380 = TOROIDAL_SURFACE ( 'NONE', #395, 3.799999999999999800, 0.2000000000000000100 ) ;
#381 = EDGE_CURVE ( 'NONE', #282, #120, #373, .T. ) ;
#382 = ORIENTED_EDGE ( 'NONE', *, *, #65, .T. ) ;
#383 = ADVANCED_BREP_SHAPE_REPRESENTATION ( 'SNSD.30.51.44. T-+þûª ¦8¿20, ÿð÷ 8(D23)', ( #190, #50 ), #371 ) ;
#384 = ORIENTED_EDGE ( 'NONE', *, *, #381, .F. ) ;
#385 = VECTOR ( 'NONE', #242, 1000.000000000000000 ) ;
#386 = DIRECTION ( 'NONE',  ( -1.000000000000000000, -0.0000000000000000000, -3.120006251756847000E-017 ) ) ;
#387 = FILL_AREA_STYLE ('',( #198 ) ) ;
#388 = PRODUCT_DEFINITION_FORMATION_WITH_SPECIFIED_SOURCE ( 'ANY', '', #44, .NOT_KNOWN. ) ;
#389 = DIRECTION ( 'NONE',  ( 0.0000000000000000000, 0.0000000000000000000, 1.000000000000000000 ) ) ;
#390 =( NAMED_UNIT ( * ) PLANE_ANGLE_UNIT ( ) SI_UNIT ( $, .RADIAN. ) );
#391 = CARTESIAN_POINT ( 'NONE',  ( -6.950000000000000200, 2.200000000000000200, -3.900000000000000400 ) ) ;
#392 = DIRECTION ( 'NONE',  ( 1.000000000000000000, 0.0000000000000000000, 3.120006251756847000E-017 ) ) ;
#393 = DIRECTION ( 'NONE',  ( -1.000000000000000000, -0.0000000000000000000, 0.0000000000000000000 ) ) ;
#394 = AXIS2_PLACEMENT_3D ( 'NONE', #15, #231, #307 ) ;
#395 = AXIS2_PLACEMENT_3D ( 'NONE', #139, #235, #238 ) ;
#396 = CIRCLE ( 'NONE', #213, 3.600000000000000100 ) ;
#397 = SHAPE_DEFINITION_REPRESENTATION ( #77, #383 ) ;
#398 = AXIS2_PLACEMENT_3D ( 'NONE', #220, #152, #311 ) ;
#399 = ORIENTED_EDGE ( 'NONE', *, *, #317, .F. ) ;
#400 = PRESENTATION_STYLE_ASSIGNMENT (( #126 ) ) ;
#401 = DIRECTION ( 'NONE',  ( 1.000000000000000000, 0.0000000000000000000, 0.0000000000000000000 ) ) ;
#402 = CARTESIAN_POINT ( 'NONE',  ( -6.950000000000000200, -2.200000000000000200, 0.0000000000000000000 ) ) ;
#403 = SURFACE_SIDE_STYLE ('',( #156 ) ) ;
#404 = CIRCLE ( 'NONE', #318, 3.899999999999999900 ) ;
ENDSEC;
END-ISO-10303-21;
