ISO-10303-21;
HEADER;
FILE_DESCRIPTION (( 'STEP AP214' ),
    '1' );
FILE_NAME ('A126 Âòóëêà äèñòàíöèîííàÿ 5õ1 4.STEP',
    '2020-10-07T09:27:03',
    ( 'Windows User' ),
    ( '' ),
    'SwSTEP 2.0',
    'SolidWorks 2020',
    '' );
FILE_SCHEMA (( 'AUTOMOTIVE_DESIGN' ));
ENDSEC;

DATA;
#1 = ORIENTED_EDGE ( 'NONE', *, *, #161, .F. ) ;
#2 = AXIS2_PLACEMENT_3D ( 'NONE', #189, #128, #239 ) ;
#3 = DIRECTION ( 'NONE',  ( -1.000000000000000000, 0.0000000000000000000, 0.0000000000000000000 ) ) ;
#4 = CARTESIAN_POINT ( 'NONE',  ( 0.0000000000000000000, 0.0000000000000000000, 2.850000000000000089 ) ) ;
#5 = DIRECTION ( 'NONE',  ( -1.000000000000000000, -0.0000000000000000000, -0.0000000000000000000 ) ) ;
#6 = FILL_AREA_STYLE ('',( #261 ) ) ;
#7 = CARTESIAN_POINT ( 'NONE',  ( 6.200000000000002842, 3.245314017740485962E-16, 2.649999999999999911 ) ) ;
#8 = AXIS2_PLACEMENT_3D ( 'NONE', #126, #237, #347 ) ;
#9 = DIRECTION ( 'NONE',  ( 1.000000000000000000, 0.0000000000000000000, 0.0000000000000000000 ) ) ;
#10 = ADVANCED_BREP_SHAPE_REPRESENTATION ( 'A126 Tªºûúð ôø¸ªðý¡øþýýð  5¿1 4', ( #339, #160 ), #323 ) ;
#11 = SURFACE_STYLE_USAGE ( .BOTH. , #45 ) ;
#12 = DIRECTION ( 'NONE',  ( 0.0000000000000000000, 0.0000000000000000000, 1.000000000000000000 ) ) ;
#13 = EDGE_LOOP ( 'NONE', ( #102, #213, #50, #1 ) ) ;
#14 = DIRECTION ( 'NONE',  ( 0.0000000000000000000, 0.0000000000000000000, -1.000000000000000000 ) ) ;
#15 = CLOSED_SHELL ( 'NONE', ( #75, #202, #333, #63, #97, #176, #252, #301, #91, #317, #359, #169 ) ) ;
#16 = CARTESIAN_POINT ( 'NONE',  ( 6.200000000000002842, 0.0000000000000000000, 0.0000000000000000000 ) ) ;
#17 = AXIS2_PLACEMENT_3D ( 'NONE', #159, #297, #166 ) ;
#18 = VERTEX_POINT ( 'NONE', #242 ) ;
#19 = EDGE_CURVE ( 'NONE', #18, #119, #136, .T. ) ;
#20 = ORIENTED_EDGE ( 'NONE', *, *, #271, .F. ) ;
#21 = AXIS2_PLACEMENT_3D ( 'NONE', #311, #28, #201 ) ;
#22 = CARTESIAN_POINT ( 'NONE',  ( 6.400000000000000355, 0.0000000000000000000, 0.0000000000000000000 ) ) ;
#23 = APPLICATION_CONTEXT ( 'automotive_design' ) ;
#24 = PRODUCT_DEFINITION_FORMATION_WITH_SPECIFIED_SOURCE ( 'ANY', '', #108, .NOT_KNOWN. ) ;
#25 = ORIENTED_EDGE ( 'NONE', *, *, #68, .T. ) ;
#26 = EDGE_CURVE ( 'NONE', #76, #288, #104, .T. ) ;
#27 = EDGE_LOOP ( 'NONE', ( #124, #67, #228, #37 ) ) ;
#28 = DIRECTION ( 'NONE',  ( 1.000000000000000000, 0.0000000000000000000, 0.0000000000000000000 ) ) ;
#29 = CIRCLE ( 'NONE', #21, 4.000000000000000000 ) ;
#30 = CARTESIAN_POINT ( 'NONE',  ( 0.2000000000000013989, 3.245314017740485962E-16, -2.649999999999999911 ) ) ;
#31 = CARTESIAN_POINT ( 'NONE',  ( 6.400000000000000355, 0.0000000000000000000, 0.0000000000000000000 ) ) ;
#32 = DIRECTION ( 'NONE',  ( 1.000000000000000000, 0.0000000000000000000, 0.0000000000000000000 ) ) ;
#33 = DIRECTION ( 'NONE',  ( 1.000000000000000000, 0.0000000000000000000, 0.0000000000000000000 ) ) ;
#34 = CIRCLE ( 'NONE', #112, 3.900000000000000799 ) ;
#35 = CARTESIAN_POINT ( 'NONE',  ( 6.400000000000000355, 0.0000000000000000000, 0.0000000000000000000 ) ) ;
#36 = EDGE_CURVE ( 'NONE', #135, #195, #55, .T. ) ;
#37 = ORIENTED_EDGE ( 'NONE', *, *, #209, .F. ) ;
#38 = FACE_OUTER_BOUND ( 'NONE', #27, .T. ) ;
#39 = DIRECTION ( 'NONE',  ( 0.0000000000000000000, 0.0000000000000000000, -1.000000000000000000 ) ) ;
#40 = EDGE_CURVE ( 'NONE', #155, #133, #273, .T. ) ;
#41 = AXIS2_PLACEMENT_3D ( 'NONE', #300, #352, #130 ) ;
#42 = EDGE_CURVE ( 'NONE', #155, #338, #330, .T. ) ;
#43 = DIRECTION ( 'NONE',  ( 1.000000000000000000, 0.0000000000000000000, 0.0000000000000000000 ) ) ;
#44 = VERTEX_POINT ( 'NONE', #205 ) ;
#45 = SURFACE_SIDE_STYLE ('',( #188 ) ) ;
#46 = DIRECTION ( 'NONE',  ( -1.000000000000000000, -0.0000000000000000000, -0.0000000000000000000 ) ) ;
#47 = CIRCLE ( 'NONE', #266, 2.850000000000000089 ) ;
#48 = AXIS2_PLACEMENT_3D ( 'NONE', #109, #9, #92 ) ;
#49 = ORIENTED_EDGE ( 'NONE', *, *, #190, .F. ) ;
#50 = ORIENTED_EDGE ( 'NONE', *, *, #271, .T. ) ;
#51 = UNCERTAINTY_MEASURE_WITH_UNIT (LENGTH_MEASURE( 1.000000000000000082E-05 ), #78, 'distance_accuracy_value', 'NONE');
#52 = ORIENTED_EDGE ( 'NONE', *, *, #179, .F. ) ;
#53 = AXIS2_PLACEMENT_3D ( 'NONE', #90, #325, #269 ) ;
#54 = MECHANICAL_DESIGN_GEOMETRIC_PRESENTATION_REPRESENTATION (  '', ( #341 ), #349 ) ;
#55 = LINE ( 'NONE', #74, #328 ) ;
#56 = ORIENTED_EDGE ( 'NONE', *, *, #161, .T. ) ;
#57 = EDGE_CURVE ( 'NONE', #167, #288, #139, .T. ) ;
#58 = CARTESIAN_POINT ( 'NONE',  ( 0.0000000000000000000, 0.0000000000000000000, 0.0000000000000000000 ) ) ;
#59 = AXIS2_PLACEMENT_3D ( 'NONE', #350, #287, #39 ) ;
#60 = CARTESIAN_POINT ( 'NONE',  ( 6.400000000000000355, 0.0000000000000000000, 0.0000000000000000000 ) ) ;
#61 = FACE_OUTER_BOUND ( 'NONE', #208, .T. ) ;
#62 = SURFACE_SIDE_STYLE ('',( #310 ) ) ;
#63 = ADVANCED_FACE ( 'NONE', ( #285 ), #305, .F. ) ;
#64 = AXIS2_PLACEMENT_3D ( 'NONE', #245, #360, #106 ) ;
#65 = ORIENTED_EDGE ( 'NONE', *, *, #198, .F. ) ;
#66 = CARTESIAN_POINT ( 'NONE',  ( 6.400000000000000355, 0.0000000000000000000, 0.0000000000000000000 ) ) ;
#67 = ORIENTED_EDGE ( 'NONE', *, *, #257, .F. ) ;
#68 = EDGE_CURVE ( 'NONE', #79, #44, #29, .T. ) ;
#69 = VECTOR ( 'NONE', #199, 1000.000000000000114 ) ;
#70 = DIRECTION ( 'NONE',  ( -1.000000000000000000, -0.0000000000000000000, -0.0000000000000000000 ) ) ;
#71 = AXIS2_PLACEMENT_3D ( 'NONE', #232, #152, #265 ) ;
#72 = VECTOR ( 'NONE', #143, 1000.000000000000000 ) ;
#73 = ORIENTED_EDGE ( 'NONE', *, *, #68, .F. ) ;
#74 = CARTESIAN_POINT ( 'NONE',  ( 6.400000000000000355, 0.0000000000000000000, 2.649999999999999911 ) ) ;
#75 = ADVANCED_FACE ( 'NONE', ( #61 ), #238, .F. ) ;
#76 = VERTEX_POINT ( 'NONE', #30 ) ;
#77 = ORIENTED_EDGE ( 'NONE', *, *, #42, .T. ) ;
#78 =( LENGTH_UNIT ( ) NAMED_UNIT ( * ) SI_UNIT ( .MILLI., .METRE. ) );
#79 = VERTEX_POINT ( 'NONE', #206 ) ;
#80 = PRESENTATION_STYLE_ASSIGNMENT (( #284 ) ) ;
#81 = CYLINDRICAL_SURFACE ( 'NONE', #241, 2.649999999999999911 ) ;
#82 = AXIS2_PLACEMENT_3D ( 'NONE', #31, #3, #331 ) ;
#83 = FACE_OUTER_BOUND ( 'NONE', #131, .T. ) ;
#84 = CARTESIAN_POINT ( 'NONE',  ( 6.400000000000000355, 4.837354856632045057E-16, -3.900000000000000799 ) ) ;
#85 = FILL_AREA_STYLE ('',( #226 ) ) ;
#86 = FACE_OUTER_BOUND ( 'NONE', #358, .T. ) ;
#87 = PRODUCT_CONTEXT ( 'NONE', #146, 'mechanical' ) ;
#88 = FACE_OUTER_BOUND ( 'NONE', #295, .T. ) ;
#89 = AXIS2_PLACEMENT_3D ( 'NONE', #16, #293, #157 ) ;
#90 = CARTESIAN_POINT ( 'NONE',  ( 0.0000000000000000000, 0.0000000000000000000, 0.0000000000000000000 ) ) ;
#91 = ADVANCED_FACE ( 'NONE', ( #88 ), #81, .F. ) ;
#92 = DIRECTION ( 'NONE',  ( 0.0000000000000000000, 0.0000000000000000000, -1.000000000000000000 ) ) ;
#93 = DIRECTION ( 'NONE',  ( -1.000000000000000000, -0.0000000000000000000, -0.0000000000000000000 ) ) ;
#94 = ORIENTED_EDGE ( 'NONE', *, *, #190, .T. ) ;
#95 = VECTOR ( 'NONE', #140, 1000.000000000000000 ) ;
#96 = FACE_BOUND ( 'NONE', #183, .T. ) ;
#97 = ADVANCED_FACE ( 'NONE', ( #150 ), #145, .T. ) ;
#98 = FACE_OUTER_BOUND ( 'NONE', #270, .T. ) ;
#99 = ORIENTED_EDGE ( 'NONE', *, *, #148, .T. ) ;
#100 = ORIENTED_EDGE ( 'NONE', *, *, #179, .T. ) ;
#101 = EDGE_CURVE ( 'NONE', #288, #167, #47, .T. ) ;
#102 = ORIENTED_EDGE ( 'NONE', *, *, #296, .T. ) ;
#103 = CARTESIAN_POINT ( 'NONE',  ( 6.300000000000002487, 0.0000000000000000000, 0.0000000000000000000 ) ) ;
#104 = LINE ( 'NONE', #219, #69 ) ;
#105 = AXIS2_PLACEMENT_3D ( 'NONE', #147, #248, #224 ) ;
#106 = DIRECTION ( 'NONE',  ( 0.0000000000000000000, 0.0000000000000000000, -1.000000000000000000 ) ) ;
#107 = AXIS2_PLACEMENT_3D ( 'NONE', #22, #243, #357 ) ;
#108 = PRODUCT ( 'A126 Âòóëêà äèñòàíöèîííàÿ 5õ1 4', 'A126 Âòóëêà äèñòàíöèîííàÿ 5õ1 4', '', ( #87 ) ) ;
#109 = CARTESIAN_POINT ( 'NONE',  ( 6.200000000000002842, 0.0000000000000000000, 0.0000000000000000000 ) ) ;
#110 = CARTESIAN_POINT ( 'NONE',  ( 6.400000000000000355, 0.0000000000000000000, 3.900000000000000799 ) ) ;
#111 = DIRECTION ( 'NONE',  ( 0.0000000000000000000, 0.0000000000000000000, 1.000000000000000000 ) ) ;
#112 = AXIS2_PLACEMENT_3D ( 'NONE', #283, #33, #114 ) ;
#113 = ORIENTED_EDGE ( 'NONE', *, *, #36, .T. ) ;
#114 = DIRECTION ( 'NONE',  ( 0.0000000000000000000, 0.0000000000000000000, -1.000000000000000000 ) ) ;
#115 = ORIENTED_EDGE ( 'NONE', *, *, #42, .F. ) ;
#116 = CARTESIAN_POINT ( 'NONE',  ( 6.200000000000002842, 0.0000000000000000000, 2.649999999999999911 ) ) ;
#117 =( NAMED_UNIT ( * ) PLANE_ANGLE_UNIT ( ) SI_UNIT ( $, .RADIAN. ) );
#118 = DIRECTION ( 'NONE',  ( 0.7071067811865452413, 8.659560562354961208E-17, 0.7071067811865497932 ) ) ;
#119 = VERTEX_POINT ( 'NONE', #223 ) ;
#120 = PRESENTATION_LAYER_ASSIGNMENT (  '', '', ( #280 ) ) ;
#121 = CARTESIAN_POINT ( 'NONE',  ( 6.200000000000002842, 0.0000000000000000000, 0.0000000000000000000 ) ) ;
#122 = EDGE_LOOP ( 'NONE', ( #65, #256, #244, #276 ) ) ;
#123 = PRESENTATION_STYLE_ASSIGNMENT (( #11 ) ) ;
#124 = ORIENTED_EDGE ( 'NONE', *, *, #268, .F. ) ;
#125 = DIRECTION ( 'NONE',  ( 1.000000000000000000, 0.0000000000000000000, 0.0000000000000000000 ) ) ;
#126 = CARTESIAN_POINT ( 'NONE',  ( 0.2000000000000013989, 0.0000000000000000000, 0.0000000000000000000 ) ) ;
#127 = EDGE_CURVE ( 'NONE', #119, #340, #153, .T. ) ;
#128 = DIRECTION ( 'NONE',  ( 1.000000000000000000, 0.0000000000000000000, 0.0000000000000000000 ) ) ;
#129 = EDGE_CURVE ( 'NONE', #18, #76, #337, .T. ) ;
#130 = DIRECTION ( 'NONE',  ( 0.0000000000000000000, 0.0000000000000000000, -1.000000000000000000 ) ) ;
#131 = EDGE_LOOP ( 'NONE', ( #163, #193, #221, #115 ) ) ;
#132 = AXIS2_PLACEMENT_3D ( 'NONE', #289, #70, #12 ) ;
#133 = VERTEX_POINT ( 'NONE', #84 ) ;
#134 = UNCERTAINTY_MEASURE_WITH_UNIT (LENGTH_MEASURE( 1.000000000000000082E-05 ), #158, 'distance_accuracy_value', 'NONE');
#135 = VERTEX_POINT ( 'NONE', #116 ) ;
#136 = LINE ( 'NONE', #327, #178 ) ;
#137 = EDGE_CURVE ( 'NONE', #133, #321, #229, .T. ) ;
#138 = CARTESIAN_POINT ( 'NONE',  ( 6.400000000000000355, 4.898587196589412829E-16, -4.000000000000000000 ) ) ;
#139 = CIRCLE ( 'NONE', #250, 2.850000000000000089 ) ;
#140 = DIRECTION ( 'NONE',  ( -1.000000000000000000, -0.0000000000000000000, -0.0000000000000000000 ) ) ;
#141 = CONICAL_SURFACE ( 'NONE', #82, 3.900000000000000799, 0.7853981633974570498 ) ;
#142 = PRODUCT_DEFINITION_SHAPE ( 'NONE', 'NONE',  #336 ) ;
#143 = DIRECTION ( 'NONE',  ( -1.000000000000000000, -0.0000000000000000000, -0.0000000000000000000 ) ) ;
#144 = COLOUR_RGB ( '',0.8666666666666666963, 0.8666666666666666963, 0.8901960784313724950 ) ;
#145 = CYLINDRICAL_SURFACE ( 'NONE', #220, 4.000000000000000000 ) ;
#146 = APPLICATION_CONTEXT ( 'automotive_design' ) ;
#147 = CARTESIAN_POINT ( 'NONE',  ( 6.400000000000000355, 0.0000000000000000000, 0.0000000000000000000 ) ) ;
#148 = EDGE_CURVE ( 'NONE', #133, #155, #34, .T. ) ;
#149 = CARTESIAN_POINT ( 'NONE',  ( 6.400000000000000355, 0.0000000000000000000, 3.900000000000000799 ) ) ;
#150 = FACE_OUTER_BOUND ( 'NONE', #13, .T. ) ;
#151 = ORIENTED_EDGE ( 'NONE', *, *, #101, .T. ) ;
#152 = DIRECTION ( 'NONE',  ( 1.000000000000000000, 0.0000000000000000000, 0.0000000000000000000 ) ) ;
#153 = CIRCLE ( 'NONE', #105, 2.849999999999998312 ) ;
#154 = COLOUR_RGB ( '',0.8666666666666666963, 0.8666666666666666963, 0.8901960784313724950 ) ;
#155 = VERTEX_POINT ( 'NONE', #149 ) ;
#156 = CARTESIAN_POINT ( 'NONE',  ( 0.0000000000000000000, 0.0000000000000000000, 0.0000000000000000000 ) ) ;
#157 = DIRECTION ( 'NONE',  ( 0.0000000000000000000, 0.0000000000000000000, -1.000000000000000000 ) ) ;
#158 =( LENGTH_UNIT ( ) NAMED_UNIT ( * ) SI_UNIT ( .MILLI., .METRE. ) );
#159 = CARTESIAN_POINT ( 'NONE',  ( 6.400000000000000355, 0.0000000000000000000, 0.0000000000000000000 ) ) ;
#160 = AXIS2_PLACEMENT_3D ( 'NONE', #156, #263, #125 ) ;
#161 = EDGE_CURVE ( 'NONE', #338, #79, #251, .T. ) ;
#162 = CYLINDRICAL_SURFACE ( 'NONE', #17, 4.000000000000000000 ) ;
#163 = ORIENTED_EDGE ( 'NONE', *, *, #148, .F. ) ;
#164 = EDGE_LOOP ( 'NONE', ( #316, #304, #56, #25 ) ) ;
#165 = CIRCLE ( 'NONE', #8, 2.649999999999999911 ) ;
#166 = DIRECTION ( 'NONE',  ( 0.0000000000000000000, 0.0000000000000000000, 1.000000000000000000 ) ) ;
#167 = VERTEX_POINT ( 'NONE', #4 ) ;
#168 = DIRECTION ( 'NONE',  ( -1.000000000000000000, -0.0000000000000000000, -0.0000000000000000000 ) ) ;
#169 = ADVANCED_FACE ( 'NONE', ( #86 ), #171, .F. ) ;
#170 = DIRECTION ( 'NONE',  ( -0.7071067811865414665, 8.659560562355008046E-17, -0.7071067811865536790 ) ) ;
#171 = CONICAL_SURFACE ( 'NONE', #132, 2.850000000000000089, 0.7853981633974450594 ) ;
#172 = CONICAL_SURFACE ( 'NONE', #48, 2.649999999999999911, 0.7853981633974514986 ) ;
#173 = CARTESIAN_POINT ( 'NONE',  ( 0.0000000000000000000, 0.0000000000000000000, 0.0000000000000000000 ) ) ;
#174 = CARTESIAN_POINT ( 'NONE',  ( 6.400000000000000355, 4.776122516674678272E-16, -3.900000000000000799 ) ) ;
#175 = CARTESIAN_POINT ( 'NONE',  ( 6.400000000000000355, 0.0000000000000000000, 0.0000000000000000000 ) ) ;
#176 = ADVANCED_FACE ( 'NONE', ( #290, #207 ), #315, .T. ) ;
#177 = AXIS2_PLACEMENT_3D ( 'NONE', #175, #363, #222 ) ;
#178 = VECTOR ( 'NONE', #324, 1000.000000000000000 ) ;
#179 = EDGE_CURVE ( 'NONE', #195, #167, #258, .T. ) ;
#180 = ORIENTED_EDGE ( 'NONE', *, *, #26, .F. ) ;
#181 = APPLICATION_PROTOCOL_DEFINITION ( 'draft international standard', 'automotive_design', 1998, #23 ) ;
#182 = CARTESIAN_POINT ( 'NONE',  ( 0.2000000000000013989, 0.0000000000000000000, 2.649999999999999911 ) ) ;
#183 = EDGE_LOOP ( 'NONE', ( #302, #151 ) ) ;
#184 = ORIENTED_EDGE ( 'NONE', *, *, #257, .T. ) ;
#185 = CARTESIAN_POINT ( 'NONE',  ( 6.400000000000000355, 3.490243377569954582E-16, 2.849999999999998312 ) ) ;
#186 = CIRCLE ( 'NONE', #312, 2.649999999999999911 ) ;
#187 = FACE_OUTER_BOUND ( 'NONE', #122, .T. ) ;
#188 = SURFACE_STYLE_FILL_AREA ( #6 ) ;
#189 = CARTESIAN_POINT ( 'NONE',  ( 0.0000000000000000000, 0.0000000000000000000, 0.0000000000000000000 ) ) ;
#190 = EDGE_CURVE ( 'NONE', #195, #76, #186, .T. ) ;
#191 = VECTOR ( 'NONE', #5, 1000.000000000000000 ) ;
#192 = EDGE_LOOP ( 'NONE', ( #356, #326, #77, #253 ) ) ;
#193 = ORIENTED_EDGE ( 'NONE', *, *, #137, .T. ) ;
#194 = FACE_OUTER_BOUND ( 'NONE', #164, .T. ) ;
#195 = VERTEX_POINT ( 'NONE', #182 ) ;
#196 = VECTOR ( 'NONE', #118, 1000.000000000000000 ) ;
#197 = CARTESIAN_POINT ( 'NONE',  ( 0.0000000000000000000, 3.490243377569956554E-16, -2.850000000000000089 ) ) ;
#198 = EDGE_CURVE ( 'NONE', #135, #18, #322, .T. ) ;
#199 = DIRECTION ( 'NONE',  ( -0.7071067811865499042, 8.659560562354904508E-17, -0.7071067811865452413 ) ) ;
#200 = ORIENTED_EDGE ( 'NONE', *, *, #209, .T. ) ;
#201 = DIRECTION ( 'NONE',  ( 0.0000000000000000000, 0.0000000000000000000, -1.000000000000000000 ) ) ;
#202 = ADVANCED_FACE ( 'NONE', ( #187 ), #318, .F. ) ;
#203 = DIRECTION ( 'NONE',  ( 1.000000000000000000, 0.0000000000000000000, 0.0000000000000000000 ) ) ;
#204 = ORIENTED_EDGE ( 'NONE', *, *, #57, .F. ) ;
#205 = CARTESIAN_POINT ( 'NONE',  ( 0.0000000000000000000, 4.898587196589412829E-16, -4.000000000000000000 ) ) ;
#206 = CARTESIAN_POINT ( 'NONE',  ( 0.0000000000000000000, 0.0000000000000000000, 4.000000000000000000 ) ) ;
#207 = FACE_OUTER_BOUND ( 'NONE', #298, .T. ) ;
#208 = EDGE_LOOP ( 'NONE', ( #216, #309, #204, #52 ) ) ;
#209 = EDGE_CURVE ( 'NONE', #340, #119, #299, .T. ) ;
#210 = CIRCLE ( 'NONE', #53, 4.000000000000000000 ) ;
#211 = APPLICATION_PROTOCOL_DEFINITION ( 'draft international standard', 'automotive_design', 1998, #146 ) ;
#212 = PRODUCT_RELATED_PRODUCT_CATEGORY ( 'part', '', ( #108 ) ) ;
#213 = ORIENTED_EDGE ( 'NONE', *, *, #329, .T. ) ;
#214 = CIRCLE ( 'NONE', #59, 2.649999999999999911 ) ;
#215 = EDGE_LOOP ( 'NONE', ( #240, #200 ) ) ;
#216 = ORIENTED_EDGE ( 'NONE', *, *, #217, .F. ) ;
#217 = EDGE_CURVE ( 'NONE', #76, #195, #165, .T. ) ;
#218 = DIRECTION ( 'NONE',  ( -1.000000000000000000, 0.0000000000000000000, 0.0000000000000000000 ) ) ;
#219 = CARTESIAN_POINT ( 'NONE',  ( 0.0000000000000000000, 3.490243377569956554E-16, -2.850000000000000089 ) ) ;
#220 = AXIS2_PLACEMENT_3D ( 'NONE', #60, #364, #111 ) ;
#221 = ORIENTED_EDGE ( 'NONE', *, *, #296, .F. ) ;
#222 = DIRECTION ( 'NONE',  ( 0.0000000000000000000, 0.0000000000000000000, 1.000000000000000000 ) ) ;
#223 = CARTESIAN_POINT ( 'NONE',  ( 6.400000000000000355, 0.0000000000000000000, -2.849999999999998312 ) ) ;
#224 = DIRECTION ( 'NONE',  ( 0.0000000000000000000, 0.0000000000000000000, -1.000000000000000000 ) ) ;
#225 = PRESENTATION_LAYER_ASSIGNMENT (  '', '', ( #341 ) ) ;
#226 = FILL_AREA_STYLE_COLOUR ( '', #154 ) ;
#227 = DIRECTION ( 'NONE',  ( 0.0000000000000000000, 0.0000000000000000000, 1.000000000000000000 ) ) ;
#228 = ORIENTED_EDGE ( 'NONE', *, *, #19, .T. ) ;
#229 = LINE ( 'NONE', #174, #279 ) ;
#230 = CARTESIAN_POINT ( 'NONE',  ( 0.2000000000000013989, 0.0000000000000000000, 0.0000000000000000000 ) ) ;
#231 = AXIS2_PLACEMENT_3D ( 'NONE', #66, #46, #14 ) ;
#232 = CARTESIAN_POINT ( 'NONE',  ( 6.400000000000000355, 0.0000000000000000000, 0.0000000000000000000 ) ) ;
#233 =( NAMED_UNIT ( * ) PLANE_ANGLE_UNIT ( ) SI_UNIT ( $, .RADIAN. ) );
#234 = DIRECTION ( 'NONE',  ( -0.7071067811865499042, 0.0000000000000000000, 0.7071067811865452413 ) ) ;
#235 = ORIENTED_EDGE ( 'NONE', *, *, #36, .F. ) ;
#236 =( NAMED_UNIT ( * ) SI_UNIT ( $, .STERADIAN. ) SOLID_ANGLE_UNIT ( ) );
#237 = DIRECTION ( 'NONE',  ( -1.000000000000000000, -0.0000000000000000000, -0.0000000000000000000 ) ) ;
#238 = CONICAL_SURFACE ( 'NONE', #361, 2.850000000000000089, 0.7853981633974450594 ) ;
#239 = DIRECTION ( 'NONE',  ( 0.0000000000000000000, 0.0000000000000000000, -1.000000000000000000 ) ) ;
#240 = ORIENTED_EDGE ( 'NONE', *, *, #127, .T. ) ;
#241 = AXIS2_PLACEMENT_3D ( 'NONE', #35, #308, #227 ) ;
#242 = CARTESIAN_POINT ( 'NONE',  ( 6.200000000000002842, 3.245314017740485962E-16, -2.649999999999999911 ) ) ;
#243 = DIRECTION ( 'NONE',  ( -1.000000000000000000, 0.0000000000000000000, 0.0000000000000000000 ) ) ;
#244 = ORIENTED_EDGE ( 'NONE', *, *, #127, .F. ) ;
#245 = CARTESIAN_POINT ( 'NONE',  ( 6.400000000000000355, 0.0000000000000000000, 0.0000000000000000000 ) ) ;
#246 = CARTESIAN_POINT ( 'NONE',  ( 0.0000000000000000000, 0.0000000000000000000, 0.0000000000000000000 ) ) ;
#247 = DIRECTION ( 'NONE',  ( 0.0000000000000000000, 0.0000000000000000000, -1.000000000000000000 ) ) ;
#248 = DIRECTION ( 'NONE',  ( -1.000000000000000000, -0.0000000000000000000, -0.0000000000000000000 ) ) ;
#249 = CARTESIAN_POINT ( 'NONE',  ( 6.300000000000002487, 4.898587196589412829E-16, -4.000000000000000000 ) ) ;
#250 = AXIS2_PLACEMENT_3D ( 'NONE', #246, #203, #332 ) ;
#251 = LINE ( 'NONE', #278, #95 ) ;
#252 = ADVANCED_FACE ( 'NONE', ( #96, #98 ), #320, .F. ) ;
#253 = ORIENTED_EDGE ( 'NONE', *, *, #319, .F. ) ;
#254 =( NAMED_UNIT ( * ) PLANE_ANGLE_UNIT ( ) SI_UNIT ( $, .RADIAN. ) );
#255 = LINE ( 'NONE', #7, #196 ) ;
#256 = ORIENTED_EDGE ( 'NONE', *, *, #268, .T. ) ;
#257 = EDGE_CURVE ( 'NONE', #18, #135, #214, .T. ) ;
#258 = LINE ( 'NONE', #343, #348 ) ;
#259 = CIRCLE ( 'NONE', #306, 4.000000000000000000 ) ;
#260 = ORIENTED_EDGE ( 'NONE', *, *, #40, .T. ) ;
#261 = FILL_AREA_STYLE_COLOUR ( '', #144 ) ;
#262 = ORIENTED_EDGE ( 'NONE', *, *, #101, .F. ) ;
#263 = DIRECTION ( 'NONE',  ( 0.0000000000000000000, 0.0000000000000000000, 1.000000000000000000 ) ) ;
#264 = DIRECTION ( 'NONE',  ( 0.0000000000000000000, 0.0000000000000000000, -1.000000000000000000 ) ) ;
#265 = DIRECTION ( 'NONE',  ( 0.0000000000000000000, 0.0000000000000000000, -1.000000000000000000 ) ) ;
#266 = AXIS2_PLACEMENT_3D ( 'NONE', #173, #32, #362 ) ;
#267 =( GEOMETRIC_REPRESENTATION_CONTEXT ( 3 ) GLOBAL_UNCERTAINTY_ASSIGNED_CONTEXT ( ( #51 ) ) GLOBAL_UNIT_ASSIGNED_CONTEXT ( ( #78, #233, #342 ) ) REPRESENTATION_CONTEXT ( 'NONE', 'WORKASPACE' ) );
#268 = EDGE_CURVE ( 'NONE', #135, #340, #255, .T. ) ;
#269 = DIRECTION ( 'NONE',  ( 0.0000000000000000000, 0.0000000000000000000, -1.000000000000000000 ) ) ;
#270 = EDGE_LOOP ( 'NONE', ( #73, #20 ) ) ;
#271 = EDGE_CURVE ( 'NONE', #44, #79, #210, .T. ) ;
#272 = ORIENTED_EDGE ( 'NONE', *, *, #129, .T. ) ;
#273 = CIRCLE ( 'NONE', #64, 3.900000000000000799 ) ;
#274 = FACE_OUTER_BOUND ( 'NONE', #192, .T. ) ;
#275 = UNCERTAINTY_MEASURE_WITH_UNIT (LENGTH_MEASURE( 1.000000000000000082E-05 ), #344, 'distance_accuracy_value', 'NONE');
#276 = ORIENTED_EDGE ( 'NONE', *, *, #19, .F. ) ;
#277 = ORIENTED_EDGE ( 'NONE', *, *, #198, .T. ) ;
#278 = CARTESIAN_POINT ( 'NONE',  ( 6.400000000000000355, 0.0000000000000000000, 4.000000000000000000 ) ) ;
#279 = VECTOR ( 'NONE', #170, 1000.000000000000000 ) ;
#280 = STYLED_ITEM ( 'NONE', ( #80 ), #339 ) ;
#281 = CARTESIAN_POINT ( 'NONE',  ( 6.300000000000002487, 0.0000000000000000000, 4.000000000000000000 ) ) ;
#282 = DIRECTION ( 'NONE',  ( -1.000000000000000000, -0.0000000000000000000, -0.0000000000000000000 ) ) ;
#283 = CARTESIAN_POINT ( 'NONE',  ( 6.400000000000000355, 0.0000000000000000000, 0.0000000000000000000 ) ) ;
#284 = SURFACE_STYLE_USAGE ( .BOTH. , #62 ) ;
#285 = FACE_OUTER_BOUND ( 'NONE', #353, .T. ) ;
#286 = SHAPE_DEFINITION_REPRESENTATION ( #142, #10 ) ;
#287 = DIRECTION ( 'NONE',  ( 1.000000000000000000, 0.0000000000000000000, 0.0000000000000000000 ) ) ;
#288 = VERTEX_POINT ( 'NONE', #197 ) ;
#289 = CARTESIAN_POINT ( 'NONE',  ( 0.0000000000000000000, 0.0000000000000000000, 0.0000000000000000000 ) ) ;
#290 = FACE_BOUND ( 'NONE', #215, .T. ) ;
#291 = VECTOR ( 'NONE', #307, 1000.000000000000000 ) ;
#292 = MECHANICAL_DESIGN_GEOMETRIC_PRESENTATION_REPRESENTATION (  '', ( #280 ), #267 ) ;
#293 = DIRECTION ( 'NONE',  ( 1.000000000000000000, 0.0000000000000000000, 0.0000000000000000000 ) ) ;
#294 = AXIS2_PLACEMENT_3D ( 'NONE', #121, #43, #264 ) ;
#295 = EDGE_LOOP ( 'NONE', ( #354, #184, #113, #94 ) ) ;
#296 = EDGE_CURVE ( 'NONE', #338, #321, #355, .T. ) ;
#297 = DIRECTION ( 'NONE',  ( -1.000000000000000000, -0.0000000000000000000, -0.0000000000000000000 ) ) ;
#298 = EDGE_LOOP ( 'NONE', ( #260, #99 ) ) ;
#299 = CIRCLE ( 'NONE', #231, 2.849999999999998312 ) ;
#300 = CARTESIAN_POINT ( 'NONE',  ( 6.300000000000002487, 0.0000000000000000000, 0.0000000000000000000 ) ) ;
#301 = ADVANCED_FACE ( 'NONE', ( #194 ), #162, .T. ) ;
#302 = ORIENTED_EDGE ( 'NONE', *, *, #57, .T. ) ;
#303 = LINE ( 'NONE', #138, #72 ) ;
#304 = ORIENTED_EDGE ( 'NONE', *, *, #319, .T. ) ;
#305 = CYLINDRICAL_SURFACE ( 'NONE', #177, 2.649999999999999911 ) ;
#306 = AXIS2_PLACEMENT_3D ( 'NONE', #103, #218, #247 ) ;
#307 = DIRECTION ( 'NONE',  ( -0.7071067811865414665, 0.0000000000000000000, 0.7071067811865536790 ) ) ;
#308 = DIRECTION ( 'NONE',  ( -1.000000000000000000, -0.0000000000000000000, -0.0000000000000000000 ) ) ;
#309 = ORIENTED_EDGE ( 'NONE', *, *, #26, .T. ) ;
#310 = SURFACE_STYLE_FILL_AREA ( #85 ) ;
#311 = CARTESIAN_POINT ( 'NONE',  ( 0.0000000000000000000, 0.0000000000000000000, 0.0000000000000000000 ) ) ;
#312 = AXIS2_PLACEMENT_3D ( 'NONE', #230, #93, #345 ) ;
#313 = CONICAL_SURFACE ( 'NONE', #107, 3.900000000000000799, 0.7853981633974570498 ) ;
#314 = DIRECTION ( 'NONE',  ( 0.0000000000000000000, 0.0000000000000000000, 1.000000000000000000 ) ) ;
#315 = PLANE ( 'NONE',  #71 ) ;
#316 = ORIENTED_EDGE ( 'NONE', *, *, #329, .F. ) ;
#317 = ADVANCED_FACE ( 'NONE', ( #274 ), #313, .T. ) ;
#318 = CONICAL_SURFACE ( 'NONE', #294, 2.649999999999999911, 0.7853981633974514986 ) ;
#319 = EDGE_CURVE ( 'NONE', #321, #338, #259, .T. ) ;
#320 = PLANE ( 'NONE',  #2 ) ;
#321 = VERTEX_POINT ( 'NONE', #249 ) ;
#322 = CIRCLE ( 'NONE', #89, 2.649999999999999911 ) ;
#323 =( GEOMETRIC_REPRESENTATION_CONTEXT ( 3 ) GLOBAL_UNCERTAINTY_ASSIGNED_CONTEXT ( ( #275 ) ) GLOBAL_UNIT_ASSIGNED_CONTEXT ( ( #344, #254, #346 ) ) REPRESENTATION_CONTEXT ( 'NONE', 'WORKASPACE' ) );
#324 = DIRECTION ( 'NONE',  ( 0.7071067811865452413, 0.0000000000000000000, -0.7071067811865497932 ) ) ;
#325 = DIRECTION ( 'NONE',  ( 1.000000000000000000, 0.0000000000000000000, 0.0000000000000000000 ) ) ;
#326 = ORIENTED_EDGE ( 'NONE', *, *, #40, .F. ) ;
#327 = CARTESIAN_POINT ( 'NONE',  ( 6.200000000000002842, 0.0000000000000000000, -2.649999999999999911 ) ) ;
#328 = VECTOR ( 'NONE', #168, 1000.000000000000000 ) ;
#329 = EDGE_CURVE ( 'NONE', #321, #44, #303, .T. ) ;
#330 = LINE ( 'NONE', #110, #291 ) ;
#331 = DIRECTION ( 'NONE',  ( 0.0000000000000000000, 0.0000000000000000000, 1.000000000000000000 ) ) ;
#332 = DIRECTION ( 'NONE',  ( 0.0000000000000000000, 0.0000000000000000000, -1.000000000000000000 ) ) ;
#333 = ADVANCED_FACE ( 'NONE', ( #83 ), #141, .T. ) ;
#334 = CARTESIAN_POINT ( 'NONE',  ( 6.400000000000000355, 3.245314017740485962E-16, -2.649999999999999911 ) ) ;
#335 = ORIENTED_EDGE ( 'NONE', *, *, #217, .T. ) ;
#336 = PRODUCT_DEFINITION ( 'UNKNOWN', '', #24, #351 ) ;
#337 = LINE ( 'NONE', #334, #191 ) ;
#338 = VERTEX_POINT ( 'NONE', #281 ) ;
#339 = MANIFOLD_SOLID_BREP ( 'Ôàñêà2', #15 ) ;
#340 = VERTEX_POINT ( 'NONE', #185 ) ;
#341 = STYLED_ITEM ( 'NONE', ( #123 ), #10 ) ;
#342 =( NAMED_UNIT ( * ) SI_UNIT ( $, .STERADIAN. ) SOLID_ANGLE_UNIT ( ) );
#343 = CARTESIAN_POINT ( 'NONE',  ( 0.0000000000000000000, 0.0000000000000000000, 2.850000000000000089 ) ) ;
#344 =( LENGTH_UNIT ( ) NAMED_UNIT ( * ) SI_UNIT ( .MILLI., .METRE. ) );
#345 = DIRECTION ( 'NONE',  ( 0.0000000000000000000, 0.0000000000000000000, -1.000000000000000000 ) ) ;
#346 =( NAMED_UNIT ( * ) SI_UNIT ( $, .STERADIAN. ) SOLID_ANGLE_UNIT ( ) );
#347 = DIRECTION ( 'NONE',  ( 0.0000000000000000000, 0.0000000000000000000, -1.000000000000000000 ) ) ;
#348 = VECTOR ( 'NONE', #234, 1000.000000000000114 ) ;
#349 =( GEOMETRIC_REPRESENTATION_CONTEXT ( 3 ) GLOBAL_UNCERTAINTY_ASSIGNED_CONTEXT ( ( #134 ) ) GLOBAL_UNIT_ASSIGNED_CONTEXT ( ( #158, #117, #236 ) ) REPRESENTATION_CONTEXT ( 'NONE', 'WORKASPACE' ) );
#350 = CARTESIAN_POINT ( 'NONE',  ( 6.200000000000002842, 0.0000000000000000000, 0.0000000000000000000 ) ) ;
#351 = PRODUCT_DEFINITION_CONTEXT ( 'detailed design', #23, 'design' ) ;
#352 = DIRECTION ( 'NONE',  ( -1.000000000000000000, 0.0000000000000000000, 0.0000000000000000000 ) ) ;
#353 = EDGE_LOOP ( 'NONE', ( #277, #272, #335, #235 ) ) ;
#354 = ORIENTED_EDGE ( 'NONE', *, *, #129, .F. ) ;
#355 = CIRCLE ( 'NONE', #41, 4.000000000000000000 ) ;
#356 = ORIENTED_EDGE ( 'NONE', *, *, #137, .F. ) ;
#357 = DIRECTION ( 'NONE',  ( 0.0000000000000000000, 0.0000000000000000000, 1.000000000000000000 ) ) ;
#358 = EDGE_LOOP ( 'NONE', ( #180, #49, #100, #262 ) ) ;
#359 = ADVANCED_FACE ( 'NONE', ( #38 ), #172, .F. ) ;
#360 = DIRECTION ( 'NONE',  ( 1.000000000000000000, 0.0000000000000000000, 0.0000000000000000000 ) ) ;
#361 = AXIS2_PLACEMENT_3D ( 'NONE', #58, #282, #314 ) ;
#362 = DIRECTION ( 'NONE',  ( 0.0000000000000000000, 0.0000000000000000000, -1.000000000000000000 ) ) ;
#363 = DIRECTION ( 'NONE',  ( -1.000000000000000000, -0.0000000000000000000, -0.0000000000000000000 ) ) ;
#364 = DIRECTION ( 'NONE',  ( -1.000000000000000000, -0.0000000000000000000, -0.0000000000000000000 ) ) ;
ENDSEC;
END-ISO-10303-21;
