ISO-10303-21;
HEADER;
FILE_DESCRIPTION (( 'STEP AP214' ),
    '1' );
FILE_NAME ('A223 Òðàïåöåèäàëüíûé âèíò 8õ1540 ìì, 4-õ çàõîäíûé, øàã 2 ìì.STEP',
    '2019-09-11T09:34:25',
    ( 'Windows User' ),
    ( '' ),
    'SwSTEP 2.0',
    'SolidWorks 2018',
    '' );
FILE_SCHEMA (( 'AUTOMOTIVE_DESIGN' ));
ENDSEC;

DATA;
#1 = ORIENTED_EDGE ( 'NONE', *, *, #106, .T. ) ;
#2 = AXIS2_PLACEMENT_3D ( 'NONE', #97, #162, #9 ) ;
#3 = PRODUCT_DEFINITION_SHAPE ( 'NONE', 'NONE',  #142 ) ;
#4 = CARTESIAN_POINT ( 'NONE',  ( 1540.000000000000000, 0.0000000000000000000, 4.000000000000000000 ) ) ;
#5 = CIRCLE ( 'NONE', #104, 4.000000000000000000 ) ;
#6 = PRESENTATION_STYLE_ASSIGNMENT (( #37 ) ) ;
#7 = DIRECTION ( 'NONE',  ( 0.0000000000000000000, 0.0000000000000000000, -1.000000000000000000 ) ) ;
#8 = CARTESIAN_POINT ( 'NONE',  ( 0.0000000000000000000, 0.0000000000000000000, 0.0000000000000000000 ) ) ;
#9 = DIRECTION ( 'NONE',  ( 0.0000000000000000000, 0.0000000000000000000, 1.000000000000000000 ) ) ;
#10 = SURFACE_SIDE_STYLE ('',( #95 ) ) ;
#11 = AXIS2_PLACEMENT_3D ( 'NONE', #129, #88, #100 ) ;
#12 = PRESENTATION_STYLE_ASSIGNMENT (( #75 ) ) ;
#13 = STYLED_ITEM ( 'NONE', ( #21 ), #154 ) ;
#14 =( NAMED_UNIT ( * ) SI_UNIT ( $, .STERADIAN. ) SOLID_ANGLE_UNIT ( ) );
#15 = EDGE_LOOP ( 'NONE', ( #101, #62, #33, #139 ) ) ;
#16 = PLANE ( 'NONE',  #55 ) ;
#17 = CARTESIAN_POINT ( 'NONE',  ( 1540.000000000000000, 0.0000000000000000000, 0.0000000000000000000 ) ) ;
#18 = DIRECTION ( 'NONE',  ( 0.0000000000000000000, 0.0000000000000000000, -1.000000000000000000 ) ) ;
#19 = PRESENTATION_STYLE_ASSIGNMENT (( #56 ) ) ;
#20 = CARTESIAN_POINT ( 'NONE',  ( 1540.000000000000000, 4.898587196589412829E-16, -4.000000000000000000 ) ) ;
#21 = PRESENTATION_STYLE_ASSIGNMENT (( #78 ) ) ;
#22 =( NAMED_UNIT ( * ) SI_UNIT ( $, .STERADIAN. ) SOLID_ANGLE_UNIT ( ) );
#23 = SURFACE_STYLE_FILL_AREA ( #58 ) ;
#24 = APPLICATION_PROTOCOL_DEFINITION ( 'draft international standard', 'automotive_design', 1998, #147 ) ;
#25 = PRESENTATION_LAYER_ASSIGNMENT (  '', '', ( #13 ) ) ;
#26 = ORIENTED_EDGE ( 'NONE', *, *, #140, .T. ) ;
#27 = VERTEX_POINT ( 'NONE', #115 ) ;
#28 = DIRECTION ( 'NONE',  ( -1.000000000000000000, -0.0000000000000000000, -0.0000000000000000000 ) ) ;
#29 = AXIS2_PLACEMENT_3D ( 'NONE', #119, #144, #18 ) ;
#30 = SURFACE_SIDE_STYLE ('',( #47 ) ) ;
#31 =( GEOMETRIC_REPRESENTATION_CONTEXT ( 3 ) GLOBAL_UNCERTAINTY_ASSIGNED_CONTEXT ( ( #89 ) ) GLOBAL_UNIT_ASSIGNED_CONTEXT ( ( #134, #169, #22 ) ) REPRESENTATION_CONTEXT ( 'NONE', 'WORKASPACE' ) );
#32 = FILL_AREA_STYLE_COLOUR ( '', #149 ) ;
#33 = ORIENTED_EDGE ( 'NONE', *, *, #57, .T. ) ;
#34 = MECHANICAL_DESIGN_GEOMETRIC_PRESENTATION_REPRESENTATION (  '', ( #137 ), #70 ) ;
#35 = DIRECTION ( 'NONE',  ( 0.0000000000000000000, 0.0000000000000000000, -1.000000000000000000 ) ) ;
#36 =( LENGTH_UNIT ( ) NAMED_UNIT ( * ) SI_UNIT ( .MILLI., .METRE. ) );
#37 = SURFACE_STYLE_USAGE ( .BOTH. , #10 ) ;
#38 = LINE ( 'NONE', #4, #43 ) ;
#39 = AXIS2_PLACEMENT_3D ( 'NONE', #63, #49, #7 ) ;
#40 = CIRCLE ( 'NONE', #60, 4.000000000000000000 ) ;
#41 = CYLINDRICAL_SURFACE ( 'NONE', #153, 4.000000000000000000 ) ;
#42 =( GEOMETRIC_REPRESENTATION_CONTEXT ( 3 ) GLOBAL_UNCERTAINTY_ASSIGNED_CONTEXT ( ( #163 ) ) GLOBAL_UNIT_ASSIGNED_CONTEXT ( ( #36, #85, #131 ) ) REPRESENTATION_CONTEXT ( 'NONE', 'WORKASPACE' ) );
#43 = VECTOR ( 'NONE', #28, 1000.000000000000000 ) ;
#44 = STYLED_ITEM ( 'NONE', ( #6 ), #64 ) ;
#45 = DIRECTION ( 'NONE',  ( 0.0000000000000000000, 0.0000000000000000000, 1.000000000000000000 ) ) ;
#46 = SHAPE_DEFINITION_REPRESENTATION ( #3, #64 ) ;
#47 = SURFACE_STYLE_FILL_AREA ( #159 ) ;
#48 = SURFACE_SIDE_STYLE ('',( #23 ) ) ;
#49 = DIRECTION ( 'NONE',  ( 1.000000000000000000, 0.0000000000000000000, 0.0000000000000000000 ) ) ;
#50 = MECHANICAL_DESIGN_GEOMETRIC_PRESENTATION_REPRESENTATION (  '', ( #13 ), #42 ) ;
#51 = FILL_AREA_STYLE_COLOUR ( '', #91 ) ;
#52 = ORIENTED_EDGE ( 'NONE', *, *, #57, .F. ) ;
#53 = MECHANICAL_DESIGN_GEOMETRIC_PRESENTATION_REPRESENTATION (  '', ( #44 ), #31 ) ;
#54 = CLOSED_SHELL ( 'NONE', ( #113, #86, #99, #132 ) ) ;
#55 = AXIS2_PLACEMENT_3D ( 'NONE', #8, #59, #105 ) ;
#56 = SURFACE_STYLE_USAGE ( .BOTH. , #157 ) ;
#57 = EDGE_CURVE ( 'NONE', #130, #27, #38, .T. ) ;
#58 = FILL_AREA_STYLE ('',( #51 ) ) ;
#59 = DIRECTION ( 'NONE',  ( 1.000000000000000000, 0.0000000000000000000, 0.0000000000000000000 ) ) ;
#60 = AXIS2_PLACEMENT_3D ( 'NONE', #128, #143, #73 ) ;
#61 = DIRECTION ( 'NONE',  ( 1.000000000000000000, 0.0000000000000000000, 0.0000000000000000000 ) ) ;
#62 = ORIENTED_EDGE ( 'NONE', *, *, #125, .F. ) ;
#63 = CARTESIAN_POINT ( 'NONE',  ( 0.0000000000000000000, 0.0000000000000000000, 0.0000000000000000000 ) ) ;
#64 = ADVANCED_BREP_SHAPE_REPRESENTATION ( 'A223 T¨ðÿõ¡õøôðû¹ývù òøýª 8¿1540 üü, 4-¿ ÷ð¿þôývù, °ðó 2 üü', ( #154, #11 ), #151 ) ;
#65 = MECHANICAL_DESIGN_GEOMETRIC_PRESENTATION_REPRESENTATION (  '', ( #160 ), #164 ) ;
#66 = ORIENTED_EDGE ( 'NONE', *, *, #140, .F. ) ;
#67 = PRODUCT_RELATED_PRODUCT_CATEGORY ( 'part', '', ( #148 ) ) ;
#68 = COLOUR_RGB ( '',0.7960784313725489669, 0.8235294117647058432, 0.9372549019607843146 ) ;
#69 = ORIENTED_EDGE ( 'NONE', *, *, #125, .T. ) ;
#70 =( GEOMETRIC_REPRESENTATION_CONTEXT ( 3 ) GLOBAL_UNCERTAINTY_ASSIGNED_CONTEXT ( ( #82 ) ) GLOBAL_UNIT_ASSIGNED_CONTEXT ( ( #108, #72, #118 ) ) REPRESENTATION_CONTEXT ( 'NONE', 'WORKASPACE' ) );
#71 = EDGE_LOOP ( 'NONE', ( #69, #26 ) ) ;
#72 =( NAMED_UNIT ( * ) PLANE_ANGLE_UNIT ( ) SI_UNIT ( $, .RADIAN. ) );
#73 = DIRECTION ( 'NONE',  ( 0.0000000000000000000, 0.0000000000000000000, -1.000000000000000000 ) ) ;
#74 = CARTESIAN_POINT ( 'NONE',  ( 1540.000000000000000, 0.0000000000000000000, 4.000000000000000000 ) ) ;
#75 = SURFACE_STYLE_USAGE ( .BOTH. , #30 ) ;
#76 = EDGE_LOOP ( 'NONE', ( #146, #167 ) ) ;
#77 = CIRCLE ( 'NONE', #39, 4.000000000000000000 ) ;
#78 = SURFACE_STYLE_USAGE ( .BOTH. , #48 ) ;
#79 = FILL_AREA_STYLE_COLOUR ( '', #68 ) ;
#80 = CYLINDRICAL_SURFACE ( 'NONE', #2, 4.000000000000000000 ) ;
#81 = LINE ( 'NONE', #20, #133 ) ;
#82 = UNCERTAINTY_MEASURE_WITH_UNIT (LENGTH_MEASURE( 1.000000000000000082E-05 ), #108, 'distance_accuracy_value', 'NONE');
#83 = DIRECTION ( 'NONE',  ( 0.0000000000000000000, 0.0000000000000000000, -1.000000000000000000 ) ) ;
#84 = AXIS2_PLACEMENT_3D ( 'NONE', #127, #61, #83 ) ;
#85 =( NAMED_UNIT ( * ) PLANE_ANGLE_UNIT ( ) SI_UNIT ( $, .RADIAN. ) );
#86 = ADVANCED_FACE ( 'NONE', ( #126 ), #41, .T. ) ;
#87 = FACE_OUTER_BOUND ( 'NONE', #71, .T. ) ;
#88 = DIRECTION ( 'NONE',  ( 0.0000000000000000000, 0.0000000000000000000, 1.000000000000000000 ) ) ;
#89 = UNCERTAINTY_MEASURE_WITH_UNIT (LENGTH_MEASURE( 1.000000000000000082E-05 ), #134, 'distance_accuracy_value', 'NONE');
#90 = FACE_OUTER_BOUND ( 'NONE', #117, .T. ) ;
#91 = COLOUR_RGB ( '',0.7960784313725489669, 0.8235294117647058432, 0.9372549019607843146 ) ;
#92 =( NAMED_UNIT ( * ) PLANE_ANGLE_UNIT ( ) SI_UNIT ( $, .RADIAN. ) );
#93 = FACE_OUTER_BOUND ( 'NONE', #76, .T. ) ;
#94 = DIRECTION ( 'NONE',  ( -1.000000000000000000, -0.0000000000000000000, -0.0000000000000000000 ) ) ;
#95 = SURFACE_STYLE_FILL_AREA ( #170 ) ;
#96 = SURFACE_STYLE_FILL_AREA ( #123 ) ;
#97 = CARTESIAN_POINT ( 'NONE',  ( 1540.000000000000000, 0.0000000000000000000, 0.0000000000000000000 ) ) ;
#98 = CARTESIAN_POINT ( 'NONE',  ( 0.0000000000000000000, 4.898587196589412829E-16, -4.000000000000000000 ) ) ;
#99 = ADVANCED_FACE ( 'NONE', ( #87 ), #141, .T. ) ;
#100 = DIRECTION ( 'NONE',  ( 1.000000000000000000, 0.0000000000000000000, 0.0000000000000000000 ) ) ;
#101 = ORIENTED_EDGE ( 'NONE', *, *, #106, .F. ) ;
#102 = DIRECTION ( 'NONE',  ( -1.000000000000000000, -0.0000000000000000000, -0.0000000000000000000 ) ) ;
#103 = PRODUCT_DEFINITION_FORMATION_WITH_SPECIFIED_SOURCE ( 'ANY', '', #148, .NOT_KNOWN. ) ;
#104 = AXIS2_PLACEMENT_3D ( 'NONE', #17, #145, #35 ) ;
#105 = DIRECTION ( 'NONE',  ( 0.0000000000000000000, 0.0000000000000000000, -1.000000000000000000 ) ) ;
#106 = EDGE_CURVE ( 'NONE', #156, #136, #81, .T. ) ;
#107 = UNCERTAINTY_MEASURE_WITH_UNIT (LENGTH_MEASURE( 1.000000000000000082E-05 ), #150, 'distance_accuracy_value', 'NONE');
#108 =( LENGTH_UNIT ( ) NAMED_UNIT ( * ) SI_UNIT ( .MILLI., .METRE. ) );
#109 = CARTESIAN_POINT ( 'NONE',  ( 1540.000000000000000, 4.898587196589412829E-16, -4.000000000000000000 ) ) ;
#110 = PRODUCT_CONTEXT ( 'NONE', #165, 'mechanical' ) ;
#111 = APPLICATION_PROTOCOL_DEFINITION ( 'draft international standard', 'automotive_design', 1998, #165 ) ;
#112 = UNCERTAINTY_MEASURE_WITH_UNIT (LENGTH_MEASURE( 1.000000000000000082E-05 ), #155, 'distance_accuracy_value', 'NONE');
#113 = ADVANCED_FACE ( 'NONE', ( #90 ), #80, .T. ) ;
#114 = CIRCLE ( 'NONE', #29, 4.000000000000000000 ) ;
#115 = CARTESIAN_POINT ( 'NONE',  ( 0.0000000000000000000, 0.0000000000000000000, 4.000000000000000000 ) ) ;
#116 = CARTESIAN_POINT ( 'NONE',  ( 1540.000000000000000, 0.0000000000000000000, 0.0000000000000000000 ) ) ;
#117 = EDGE_LOOP ( 'NONE', ( #66, #1, #122, #52 ) ) ;
#118 =( NAMED_UNIT ( * ) SI_UNIT ( $, .STERADIAN. ) SOLID_ANGLE_UNIT ( ) );
#119 = CARTESIAN_POINT ( 'NONE',  ( 1540.000000000000000, 0.0000000000000000000, 0.0000000000000000000 ) ) ;
#120 =( NAMED_UNIT ( * ) PLANE_ANGLE_UNIT ( ) SI_UNIT ( $, .RADIAN. ) );
#121 = PRESENTATION_LAYER_ASSIGNMENT (  '', '', ( #160 ) ) ;
#122 = ORIENTED_EDGE ( 'NONE', *, *, #152, .T. ) ;
#123 = FILL_AREA_STYLE ('',( #124 ) ) ;
#124 = FILL_AREA_STYLE_COLOUR ( '', #158 ) ;
#125 = EDGE_CURVE ( 'NONE', #130, #156, #114, .T. ) ;
#126 = FACE_OUTER_BOUND ( 'NONE', #15, .T. ) ;
#127 = CARTESIAN_POINT ( 'NONE',  ( 1540.000000000000000, 0.0000000000000000000, 0.0000000000000000000 ) ) ;
#128 = CARTESIAN_POINT ( 'NONE',  ( 0.0000000000000000000, 0.0000000000000000000, 0.0000000000000000000 ) ) ;
#129 = CARTESIAN_POINT ( 'NONE',  ( 0.0000000000000000000, 0.0000000000000000000, 0.0000000000000000000 ) ) ;
#130 = VERTEX_POINT ( 'NONE', #74 ) ;
#131 =( NAMED_UNIT ( * ) SI_UNIT ( $, .STERADIAN. ) SOLID_ANGLE_UNIT ( ) );
#132 = ADVANCED_FACE ( 'NONE', ( #93 ), #16, .F. ) ;
#133 = VECTOR ( 'NONE', #94, 1000.000000000000000 ) ;
#134 =( LENGTH_UNIT ( ) NAMED_UNIT ( * ) SI_UNIT ( .MILLI., .METRE. ) );
#135 = PRESENTATION_LAYER_ASSIGNMENT (  '', '', ( #137 ) ) ;
#136 = VERTEX_POINT ( 'NONE', #98 ) ;
#137 = STYLED_ITEM ( 'NONE', ( #12 ), #113 ) ;
#138 = EDGE_CURVE ( 'NONE', #27, #136, #77, .T. ) ;
#139 = ORIENTED_EDGE ( 'NONE', *, *, #138, .T. ) ;
#140 = EDGE_CURVE ( 'NONE', #156, #130, #5, .T. ) ;
#141 = PLANE ( 'NONE',  #84 ) ;
#142 = PRODUCT_DEFINITION ( 'UNKNOWN', '', #103, #166 ) ;
#143 = DIRECTION ( 'NONE',  ( 1.000000000000000000, 0.0000000000000000000, 0.0000000000000000000 ) ) ;
#144 = DIRECTION ( 'NONE',  ( 1.000000000000000000, 0.0000000000000000000, 0.0000000000000000000 ) ) ;
#145 = DIRECTION ( 'NONE',  ( 1.000000000000000000, 0.0000000000000000000, 0.0000000000000000000 ) ) ;
#146 = ORIENTED_EDGE ( 'NONE', *, *, #138, .F. ) ;
#147 = APPLICATION_CONTEXT ( 'automotive_design' ) ;
#148 = PRODUCT ( 'A223 Òðàïåöåèäàëüíûé âèíò 8õ1540 ìì, 4-õ çàõîäíûé, øàã 2 ìì', 'A223 Òðàïåöåèäàëüíûé âèíò 8õ1540 ìì, 4-õ çàõîäíûé, øàã 2 ìì', '', ( #110 ) ) ;
#149 = COLOUR_RGB ( '',0.7960784313725489669, 0.8235294117647058432, 0.9372549019607843146 ) ;
#150 =( LENGTH_UNIT ( ) NAMED_UNIT ( * ) SI_UNIT ( .MILLI., .METRE. ) );
#151 =( GEOMETRIC_REPRESENTATION_CONTEXT ( 3 ) GLOBAL_UNCERTAINTY_ASSIGNED_CONTEXT ( ( #107 ) ) GLOBAL_UNIT_ASSIGNED_CONTEXT ( ( #150, #120, #168 ) ) REPRESENTATION_CONTEXT ( 'NONE', 'WORKASPACE' ) );
#152 = EDGE_CURVE ( 'NONE', #136, #27, #40, .T. ) ;
#153 = AXIS2_PLACEMENT_3D ( 'NONE', #116, #102, #45 ) ;
#154 = MANIFOLD_SOLID_BREP ( 'Áîáûøêà-Âûòÿíóòü1', #54 ) ;
#155 =( LENGTH_UNIT ( ) NAMED_UNIT ( * ) SI_UNIT ( .MILLI., .METRE. ) );
#156 = VERTEX_POINT ( 'NONE', #109 ) ;
#157 = SURFACE_SIDE_STYLE ('',( #96 ) ) ;
#158 = COLOUR_RGB ( '',0.7960784313725489669, 0.8235294117647058432, 0.9372549019607843146 ) ;
#159 = FILL_AREA_STYLE ('',( #32 ) ) ;
#160 = STYLED_ITEM ( 'NONE', ( #19 ), #86 ) ;
#161 = PRESENTATION_LAYER_ASSIGNMENT (  '', '', ( #44 ) ) ;
#162 = DIRECTION ( 'NONE',  ( -1.000000000000000000, -0.0000000000000000000, -0.0000000000000000000 ) ) ;
#163 = UNCERTAINTY_MEASURE_WITH_UNIT (LENGTH_MEASURE( 1.000000000000000082E-05 ), #36, 'distance_accuracy_value', 'NONE');
#164 =( GEOMETRIC_REPRESENTATION_CONTEXT ( 3 ) GLOBAL_UNCERTAINTY_ASSIGNED_CONTEXT ( ( #112 ) ) GLOBAL_UNIT_ASSIGNED_CONTEXT ( ( #155, #92, #14 ) ) REPRESENTATION_CONTEXT ( 'NONE', 'WORKASPACE' ) );
#165 = APPLICATION_CONTEXT ( 'automotive_design' ) ;
#166 = PRODUCT_DEFINITION_CONTEXT ( 'detailed design', #147, 'design' ) ;
#167 = ORIENTED_EDGE ( 'NONE', *, *, #152, .F. ) ;
#168 =( NAMED_UNIT ( * ) SI_UNIT ( $, .STERADIAN. ) SOLID_ANGLE_UNIT ( ) );
#169 =( NAMED_UNIT ( * ) PLANE_ANGLE_UNIT ( ) SI_UNIT ( $, .RADIAN. ) );
#170 = FILL_AREA_STYLE ('',( #79 ) ) ;
ENDSEC;
END-ISO-10303-21;
