ISO-10303-21;
HEADER;
FILE_DESCRIPTION (( 'STEP AP214' ),
    '1' );
FILE_NAME ('L1515S1.5X Ïðîôèëü àëþìèíèåâûé, óãîëîê 15õ15õ1.5.STEP',
    '2025-11-18T11:05:38',
    ( '' ),
    ( '' ),
    'SwSTEP 2.0',
    'SolidWorks 2025',
    '' );
FILE_SCHEMA (( 'AUTOMOTIVE_DESIGN' ));
ENDSEC;

DATA;
#1 = DIRECTION ( 'NONE',  ( 0.000000000000000000, -0.000000000000000000, -1.000000000000000000 ) ) ;
#2 = VERTEX_POINT ( 'NONE', #283 ) ;
#3 = DIRECTION ( 'NONE',  ( -0.000000000000000000, -0.000000000000000000, -1.000000000000000000 ) ) ;
#4 = FACE_OUTER_BOUND ( 'NONE', #39, .T. ) ;
#5 = DIRECTION ( 'NONE',  ( -1.000000000000000000, -0.000000000000000000, -0.000000000000000000 ) ) ;
#6 = CARTESIAN_POINT ( 'NONE',  ( 0.000000000000000000, 15.00000000000000000, 500.0000000000000000 ) ) ;
#7 = CARTESIAN_POINT ( 'NONE',  ( 15.00000000000000000, 1.500000000000000000, 500.0000000000000000 ) ) ;
#8 = ADVANCED_BREP_SHAPE_REPRESENTATION ( 'L1515S1.5X \X2\041f0440043e04440438043b044c\X0\ \X2\0430043b044e043c0438043d043804350432044b0439\X0\, \X2\04430433043e043b043e043a\X0\ 15\X2\0445\X0\15\X2\0445\X0\1.5', ( #177, #63 ), #259 ) ;
#9 = EDGE_LOOP ( 'NONE', ( #160, #40, #237, #55 ) ) ;
#10 = AXIS2_PLACEMENT_3D ( 'NONE', #243, #51, #135 ) ;
#11 = ORIENTED_EDGE ( 'NONE', *, *, #275, .T. ) ;
#12 = LINE ( 'NONE', #164, #107 ) ;
#13 = ORIENTED_EDGE ( 'NONE', *, *, #78, .F. ) ;
#14 = CARTESIAN_POINT ( 'NONE',  ( 0.4999999999999998890, 0.4999999999999998890, 500.0000000000000000 ) ) ;
#15 = UNCERTAINTY_MEASURE_WITH_UNIT (LENGTH_MEASURE( 1.000000000000000082E-05 ), #128, 'distance_accuracy_value', 'NONE');
#16 = VECTOR ( 'NONE', #56, 1000.000000000000000 ) ;
#17 = CARTESIAN_POINT ( 'NONE',  ( 0.5000000000000035527, 0.000000000000000000, 500.0000000000000000 ) ) ;
#18 = PRODUCT_CONTEXT ( 'NONE', #269, 'mechanical' ) ;
#19 = EDGE_CURVE ( 'NONE', #179, #54, #68, .T. ) ;
#20 = FACE_OUTER_BOUND ( 'NONE', #98, .T. ) ;
#21 = DIRECTION ( 'NONE',  ( 1.000000000000000000, 0.000000000000000000, 0.000000000000000000 ) ) ;
#22 = DIRECTION ( 'NONE',  ( -1.000000000000000000, 0.000000000000000000, 0.000000000000000000 ) ) ;
#23 = CARTESIAN_POINT ( 'NONE',  ( 0.000000000000000000, 0.5000000000000035527, 500.0000000000000000 ) ) ;
#24 =( NAMED_UNIT ( * ) SI_UNIT ( $, .STERADIAN. ) SOLID_ANGLE_UNIT ( ) );
#25 = CARTESIAN_POINT ( 'NONE',  ( 0.5000000000000033307, 0.000000000000000000, 500.0000000000000000 ) ) ;
#26 = AXIS2_PLACEMENT_3D ( 'NONE', #148, #144, #236 ) ;
#27 = CARTESIAN_POINT ( 'NONE',  ( 1.500000000000003553, 1.500000000000000000, -500.0000000000000000 ) ) ;
#28 = CARTESIAN_POINT ( 'NONE',  ( 1.500000000000003553, 1.500000000000000000, 500.0000000000000000 ) ) ;
#29 = ORIENTED_EDGE ( 'NONE', *, *, #203, .F. ) ;
#30 = PLANE ( 'NONE',  #10 ) ;
#31 = ORIENTED_EDGE ( 'NONE', *, *, #117, .F. ) ;
#32 = APPLICATION_CONTEXT ( 'automotive_design' ) ;
#33 = CIRCLE ( 'NONE', #69, 0.4999999999999998890 ) ;
#34 = EDGE_CURVE ( 'NONE', #54, #182, #83, .T. ) ;
#35 = ORIENTED_EDGE ( 'NONE', *, *, #258, .F. ) ;
#36 = ORIENTED_EDGE ( 'NONE', *, *, #183, .T. ) ;
#37 = EDGE_CURVE ( 'NONE', #115, #201, #123, .T. ) ;
#38 = ORIENTED_EDGE ( 'NONE', *, *, #121, .T. ) ;
#39 = EDGE_LOOP ( 'NONE', ( #11, #119, #31, #38 ) ) ;
#40 = ORIENTED_EDGE ( 'NONE', *, *, #245, .F. ) ;
#41 = CARTESIAN_POINT ( 'NONE',  ( 0.000000000000000000, 15.00000000000000000, -500.0000000000000000 ) ) ;
#42 = VECTOR ( 'NONE', #87, 1000.000000000000000 ) ;
#43 = LINE ( 'NONE', #282, #118 ) ;
#44 = CARTESIAN_POINT ( 'NONE',  ( 0.000000000000000000, 0.5000000000000035527, -500.0000000000000000 ) ) ;
#45 = CARTESIAN_POINT ( 'NONE',  ( 15.00000000000000000, 1.500000000000000000, -500.0000000000000000 ) ) ;
#46 = AXIS2_PLACEMENT_3D ( 'NONE', #210, #216, #1 ) ;
#47 = LINE ( 'NONE', #146, #161 ) ;
#48 = DIRECTION ( 'NONE',  ( -0.000000000000000000, -1.000000000000000000, -0.000000000000000000 ) ) ;
#49 = DIRECTION ( 'NONE',  ( -1.000000000000000000, -0.000000000000000000, -0.000000000000000000 ) ) ;
#50 = VECTOR ( 'NONE', #93, 1000.000000000000000 ) ;
#51 = DIRECTION ( 'NONE',  ( -1.000000000000000000, -2.569960705150825398E-16, 0.000000000000000000 ) ) ;
#52 = LINE ( 'NONE', #171, #187 ) ;
#53 = ORIENTED_EDGE ( 'NONE', *, *, #34, .F. ) ;
#54 = VERTEX_POINT ( 'NONE', #166 ) ;
#55 = ORIENTED_EDGE ( 'NONE', *, *, #194, .T. ) ;
#56 = DIRECTION ( 'NONE',  ( 1.000000000000000000, 0.000000000000000000, 0.000000000000000000 ) ) ;
#57 = EDGE_LOOP ( 'NONE', ( #208, #13, #228, #261 ) ) ;
#58 = FACE_OUTER_BOUND ( 'NONE', #205, .T. ) ;
#59 = PLANE ( 'NONE',  #26 ) ;
#60 = ADVANCED_FACE ( 'NONE', ( #190 ), #264, .F. ) ;
#61 = DIRECTION ( 'NONE',  ( 0.000000000000000000, 0.000000000000000000, 1.000000000000000000 ) ) ;
#62 = CARTESIAN_POINT ( 'NONE',  ( 0.000000000000000000, 15.00000000000000000, 500.0000000000000000 ) ) ;
#63 = AXIS2_PLACEMENT_3D ( 'NONE', #263, #61, #192 ) ;
#64 = CARTESIAN_POINT ( 'NONE',  ( 0.5000000000000033307, 0.000000000000000000, -500.0000000000000000 ) ) ;
#65 = VERTEX_POINT ( 'NONE', #23 ) ;
#66 = CYLINDRICAL_SURFACE ( 'NONE', #277, 0.4999999999999998890 ) ;
#67 = PLANE ( 'NONE',  #244 ) ;
#68 = LINE ( 'NONE', #41, #172 ) ;
#69 = AXIS2_PLACEMENT_3D ( 'NONE', #157, #89, #271 ) ;
#70 = LINE ( 'NONE', #27, #286 ) ;
#71 = FACE_OUTER_BOUND ( 'NONE', #122, .T. ) ;
#72 = PRODUCT_DEFINITION_FORMATION_WITH_SPECIFIED_SOURCE ( 'ANY', '', #185, .NOT_KNOWN. ) ;
#73 = LINE ( 'NONE', #92, #145 ) ;
#74 = ORIENTED_EDGE ( 'NONE', *, *, #78, .T. ) ;
#75 = AXIS2_PLACEMENT_3D ( 'NONE', #131, #231, #82 ) ;
#76 = AXIS2_PLACEMENT_3D ( 'NONE', #140, #97, #207 ) ;
#77 = ORIENTED_EDGE ( 'NONE', *, *, #121, .F. ) ;
#78 = EDGE_CURVE ( 'NONE', #65, #182, #47, .T. ) ;
#79 = ORIENTED_EDGE ( 'NONE', *, *, #266, .F. ) ;
#80 = ORIENTED_EDGE ( 'NONE', *, *, #235, .F. ) ;
#81 = LINE ( 'NONE', #165, #197 ) ;
#82 = DIRECTION ( 'NONE',  ( 1.000000000000000000, 0.000000000000000000, -0.000000000000000000 ) ) ;
#83 = LINE ( 'NONE', #44, #254 ) ;
#84 = PRESENTATION_LAYER_ASSIGNMENT (  '', '', ( #99 ) ) ;
#85 = EDGE_CURVE ( 'NONE', #240, #115, #262, .T. ) ;
#86 = DIRECTION ( 'NONE',  ( 0.000000000000000000, 1.000000000000000000, 0.000000000000000000 ) ) ;
#87 = DIRECTION ( 'NONE',  ( -2.569960705150825398E-16, 1.000000000000000000, -0.000000000000000000 ) ) ;
#88 = EDGE_LOOP ( 'NONE', ( #116, #77, #79, #36 ) ) ;
#89 = DIRECTION ( 'NONE',  ( 0.000000000000000000, 0.000000000000000000, 1.000000000000000000 ) ) ;
#90 = MECHANICAL_DESIGN_GEOMETRIC_PRESENTATION_REPRESENTATION (  '', ( #99 ), #202 ) ;
#91 = DIRECTION ( 'NONE',  ( -1.000000000000000000, 0.000000000000000000, 0.000000000000000000 ) ) ;
#92 = CARTESIAN_POINT ( 'NONE',  ( 0.000000000000000000, 0.5000000000000035527, 500.0000000000000000 ) ) ;
#93 = DIRECTION ( 'NONE',  ( -0.000000000000000000, -0.000000000000000000, -1.000000000000000000 ) ) ;
#94 = ADVANCED_FACE ( 'NONE', ( #104 ), #67, .F. ) ;
#95 = DIRECTION ( 'NONE',  ( -2.569960705150825398E-16, 1.000000000000000000, -0.000000000000000000 ) ) ;
#96 = ORIENTED_EDGE ( 'NONE', *, *, #204, .T. ) ;
#97 = DIRECTION ( 'NONE',  ( 0.000000000000000000, 0.000000000000000000, 1.000000000000000000 ) ) ;
#98 = EDGE_LOOP ( 'NONE', ( #221, #80, #184, #252, #101, #35, #53 ) ) ;
#99 = STYLED_ITEM ( 'NONE', ( #133 ), #177 ) ;
#100 = PRODUCT_DEFINITION_CONTEXT ( 'detailed design', #32, 'design' ) ;
#101 = ORIENTED_EDGE ( 'NONE', *, *, #151, .F. ) ;
#102 = ORIENTED_EDGE ( 'NONE', *, *, #266, .T. ) ;
#103 = DIRECTION ( 'NONE',  ( -0.000000000000000000, -0.000000000000000000, -1.000000000000000000 ) ) ;
#104 = FACE_OUTER_BOUND ( 'NONE', #88, .T. ) ;
#105 = FACE_OUTER_BOUND ( 'NONE', #57, .T. ) ;
#106 = CARTESIAN_POINT ( 'NONE',  ( 0.5000000000000033307, 0.000000000000000000, 500.0000000000000000 ) ) ;
#107 = VECTOR ( 'NONE', #186, 1000.000000000000000 ) ;
#108 = DIRECTION ( 'NONE',  ( -0.000000000000000000, -1.000000000000000000, -0.000000000000000000 ) ) ;
#109 = LINE ( 'NONE', #268, #130 ) ;
#110 = ADVANCED_FACE ( 'NONE', ( #20 ), #189, .F. ) ;
#111 =( LENGTH_UNIT ( ) NAMED_UNIT ( * ) SI_UNIT ( .MILLI., .METRE. ) );
#112 = SURFACE_STYLE_USAGE ( .BOTH. , #272 ) ;
#113 = LINE ( 'NONE', #6, #50 ) ;
#114 = VERTEX_POINT ( 'NONE', #45 ) ;
#115 = VERTEX_POINT ( 'NONE', #257 ) ;
#116 = ORIENTED_EDGE ( 'NONE', *, *, #151, .T. ) ;
#117 = EDGE_CURVE ( 'NONE', #141, #255, #43, .T. ) ;
#118 = VECTOR ( 'NONE', #86, 1000.000000000000000 ) ;
#119 = ORIENTED_EDGE ( 'NONE', *, *, #204, .F. ) ;
#120 = ORIENTED_EDGE ( 'NONE', *, *, #117, .T. ) ;
#121 = EDGE_CURVE ( 'NONE', #141, #253, #129, .T. ) ;
#122 = EDGE_LOOP ( 'NONE', ( #149, #200, #248, #278 ) ) ;
#123 = LINE ( 'NONE', #62, #219 ) ;
#124 = COLOUR_RGB ( '',0.5921568627450980449, 0.6196078431372549211, 0.6509803921568627638 ) ;
#125 = ADVANCED_FACE ( 'NONE', ( #105 ), #211, .F. ) ;
#126 = CARTESIAN_POINT ( 'NONE',  ( 15.00000000000000000, 0.000000000000000000, 500.0000000000000000 ) ) ;
#127 = LINE ( 'NONE', #212, #265 ) ;
#128 =( LENGTH_UNIT ( ) NAMED_UNIT ( * ) SI_UNIT ( .MILLI., .METRE. ) );
#129 = LINE ( 'NONE', #126, #209 ) ;
#130 = VECTOR ( 'NONE', #196, 1000.000000000000000 ) ;
#131 = CARTESIAN_POINT ( 'NONE',  ( 0.4999999999999998890, 0.4999999999999998890, -500.0000000000000000 ) ) ;
#132 = EDGE_CURVE ( 'NONE', #240, #2, #81, .T. ) ;
#133 = PRESENTATION_STYLE_ASSIGNMENT (( #112 ) ) ;
#134 = FILL_AREA_STYLE_COLOUR ( '', #124 ) ;
#135 = DIRECTION ( 'NONE',  ( 2.569960705150825398E-16, -1.000000000000000000, 0.000000000000000000 ) ) ;
#136 = CARTESIAN_POINT ( 'NONE',  ( 0.4999999999999998890, 0.4999999999999998890, 500.0000000000000000 ) ) ;
#137 = LINE ( 'NONE', #25, #239 ) ;
#138 = CIRCLE ( 'NONE', #76, 0.4999999999999998890 ) ;
#139 = VERTEX_POINT ( 'NONE', #64 ) ;
#140 = CARTESIAN_POINT ( 'NONE',  ( 0.4999999999999998890, 0.4999999999999998890, -500.0000000000000000 ) ) ;
#141 = VERTEX_POINT ( 'NONE', #256 ) ;
#142 = PRODUCT_RELATED_PRODUCT_CATEGORY ( 'part', '', ( #185 ) ) ;
#143 = APPLICATION_PROTOCOL_DEFINITION ( 'draft international standard', 'automotive_design', 1998, #269 ) ;
#144 = DIRECTION ( 'NONE',  ( 0.000000000000000000, -1.000000000000000000, 0.000000000000000000 ) ) ;
#145 = VECTOR ( 'NONE', #48, 1000.000000000000000 ) ;
#146 = CARTESIAN_POINT ( 'NONE',  ( 0.000000000000000000, 0.5000000000000035527, 500.0000000000000000 ) ) ;
#147 = ADVANCED_FACE ( 'NONE', ( #215 ), #59, .F. ) ;
#148 = CARTESIAN_POINT ( 'NONE',  ( 0.000000000000000000, 15.00000000000000000, 500.0000000000000000 ) ) ;
#149 = ORIENTED_EDGE ( 'NONE', *, *, #235, .T. ) ;
#150 = ORIENTED_EDGE ( 'NONE', *, *, #183, .F. ) ;
#151 = EDGE_CURVE ( 'NONE', #139, #253, #127, .T. ) ;
#152 = DIRECTION ( 'NONE',  ( -1.000000000000000000, -0.000000000000000000, -0.000000000000000000 ) ) ;
#153 = AXIS2_PLACEMENT_3D ( 'NONE', #285, #188, #169 ) ;
#154 = PRODUCT_DEFINITION ( 'UNKNOWN', '', #72, #100 ) ;
#155 = PLANE ( 'NONE',  #224 ) ;
#156 = VECTOR ( 'NONE', #95, 1000.000000000000000 ) ;
#157 = CARTESIAN_POINT ( 'NONE',  ( 0.4999999999999998890, 0.4999999999999998890, 500.0000000000000000 ) ) ;
#158 = DIRECTION ( 'NONE',  ( 0.000000000000000000, 0.000000000000000000, 1.000000000000000000 ) ) ;
#159 = ORIENTED_EDGE ( 'NONE', *, *, #203, .T. ) ;
#160 = ORIENTED_EDGE ( 'NONE', *, *, #19, .T. ) ;
#161 = VECTOR ( 'NONE', #234, 1000.000000000000000 ) ;
#162 = VERTEX_POINT ( 'NONE', #106 ) ;
#163 = ORIENTED_EDGE ( 'NONE', *, *, #174, .F. ) ;
#164 = CARTESIAN_POINT ( 'NONE',  ( 15.00000000000000000, 0.000000000000000000, -500.0000000000000000 ) ) ;
#165 = CARTESIAN_POINT ( 'NONE',  ( 1.500000000000003553, 1.500000000000000000, 500.0000000000000000 ) ) ;
#166 = CARTESIAN_POINT ( 'NONE',  ( 0.000000000000000000, 15.00000000000000000, -500.0000000000000000 ) ) ;
#167 = AXIS2_PLACEMENT_3D ( 'NONE', #136, #241, #270 ) ;
#168 = DIRECTION ( 'NONE',  ( 0.000000000000000000, 1.000000000000000000, 0.000000000000000000 ) ) ;
#169 = DIRECTION ( 'NONE',  ( 0.000000000000000000, 0.000000000000000000, -1.000000000000000000 ) ) ;
#170 = DIRECTION ( 'NONE',  ( -1.000000000000000000, -0.000000000000000000, -0.000000000000000000 ) ) ;
#171 = CARTESIAN_POINT ( 'NONE',  ( 15.00000000000000000, 1.500000000000000000, 500.0000000000000000 ) ) ;
#172 = VECTOR ( 'NONE', #152, 1000.000000000000000 ) ;
#173 = CARTESIAN_POINT ( 'NONE',  ( 0.000000000000000000, 15.00000000000000000, 500.0000000000000000 ) ) ;
#174 = EDGE_CURVE ( 'NONE', #255, #240, #193, .T. ) ;
#175 = FILL_AREA_STYLE ('',( #134 ) ) ;
#176 = CARTESIAN_POINT ( 'NONE',  ( 15.00000000000000000, 0.000000000000000000, -500.0000000000000000 ) ) ;
#177 = MANIFOLD_SOLID_BREP ( '\X2\0411043e0431044b0448043a0430\X0\-\X2\0412044b0442044f043d04430442044c\X0\1', #232 ) ;
#178 = DIRECTION ( 'NONE',  ( -0.000000000000000000, -0.000000000000000000, -1.000000000000000000 ) ) ;
#179 = VERTEX_POINT ( 'NONE', #242 ) ;
#180 = ADVANCED_FACE ( 'NONE', ( #4 ), #155, .F. ) ;
#181 = ORIENTED_EDGE ( 'NONE', *, *, #132, .F. ) ;
#182 = VERTEX_POINT ( 'NONE', #199 ) ;
#183 = EDGE_CURVE ( 'NONE', #162, #139, #137, .T. ) ;
#184 = ORIENTED_EDGE ( 'NONE', *, *, #218, .F. ) ;
#185 = PRODUCT ( 'L1515S1.5X \X2\041f0440043e04440438043b044c\X0\ \X2\0430043b044e043c0438043d043804350432044b0439\X0\, \X2\04430433043e043b043e043a\X0\ 15\X2\0445\X0\15\X2\0445\X0\1.5', 'L1515S1.5X \X2\041f0440043e04440438043b044c\X0\ \X2\0430043b044e043c0438043d043804350432044b0439\X0\, \X2\04430433043e043b043e043a\X0\ 15\X2\0445\X0\15\X2\0445\X0\1.5', '', ( #18 ) ) ;
#186 = DIRECTION ( 'NONE',  ( 0.000000000000000000, 1.000000000000000000, 0.000000000000000000 ) ) ;
#187 = VECTOR ( 'NONE', #178, 1000.000000000000000 ) ;
#188 = DIRECTION ( 'NONE',  ( 1.000000000000000000, 0.000000000000000000, 0.000000000000000000 ) ) ;
#189 = PLANE ( 'NONE',  #75 ) ;
#190 = FACE_OUTER_BOUND ( 'NONE', #226, .T. ) ;
#191 = UNCERTAINTY_MEASURE_WITH_UNIT (LENGTH_MEASURE( 1.000000000000000082E-05 ), #111, 'distance_accuracy_value', 'NONE');
#192 = DIRECTION ( 'NONE',  ( 1.000000000000000000, 0.000000000000000000, 0.000000000000000000 ) ) ;
#193 = LINE ( 'NONE', #288, #249 ) ;
#194 = EDGE_CURVE ( 'NONE', #115, #179, #109, .T. ) ;
#195 = DIRECTION ( 'NONE',  ( 0.000000000000000000, -0.000000000000000000, 1.000000000000000000 ) ) ;
#196 = DIRECTION ( 'NONE',  ( -0.000000000000000000, -0.000000000000000000, -1.000000000000000000 ) ) ;
#197 = VECTOR ( 'NONE', #260, 1000.000000000000000 ) ;
#198 = CARTESIAN_POINT ( 'NONE',  ( 15.00000000000000000, 0.000000000000000000, 500.0000000000000000 ) ) ;
#199 = CARTESIAN_POINT ( 'NONE',  ( 0.000000000000000000, 0.5000000000000035527, -500.0000000000000000 ) ) ;
#200 = ORIENTED_EDGE ( 'NONE', *, *, #194, .F. ) ;
#201 = VERTEX_POINT ( 'NONE', #173 ) ;
#202 =( GEOMETRIC_REPRESENTATION_CONTEXT ( 3 ) GLOBAL_UNCERTAINTY_ASSIGNED_CONTEXT ( ( #191 ) ) GLOBAL_UNIT_ASSIGNED_CONTEXT ( ( #111, #217, #24 ) ) REPRESENTATION_CONTEXT ( 'NONE', 'WORKASPACE' ) );
#203 = EDGE_CURVE ( 'NONE', #65, #162, #33, .T. ) ;
#204 = EDGE_CURVE ( 'NONE', #255, #114, #52, .T. ) ;
#205 = EDGE_LOOP ( 'NONE', ( #273, #150, #29, #74 ) ) ;
#206 = EDGE_LOOP ( 'NONE', ( #274, #279, #159, #102, #120, #213, #276 ) ) ;
#207 = DIRECTION ( 'NONE',  ( 1.000000000000000000, 0.000000000000000000, 0.000000000000000000 ) ) ;
#208 = ORIENTED_EDGE ( 'NONE', *, *, #34, .T. ) ;
#209 = VECTOR ( 'NONE', #103, 1000.000000000000000 ) ;
#210 = CARTESIAN_POINT ( 'NONE',  ( 1.500000000000003553, 1.500000000000000000, 500.0000000000000000 ) ) ;
#211 = PLANE ( 'NONE',  #153 ) ;
#212 = CARTESIAN_POINT ( 'NONE',  ( 0.5000000000000035527, 0.000000000000000000, -500.0000000000000000 ) ) ;
#213 = ORIENTED_EDGE ( 'NONE', *, *, #174, .T. ) ;
#214 = DIRECTION ( 'NONE',  ( -0.000000000000000000, -0.000000000000000000, -1.000000000000000000 ) ) ;
#215 = FACE_OUTER_BOUND ( 'NONE', #9, .T. ) ;
#216 = DIRECTION ( 'NONE',  ( 0.000000000000000000, -1.000000000000000000, 0.000000000000000000 ) ) ;
#217 =( NAMED_UNIT ( * ) PLANE_ANGLE_UNIT ( ) SI_UNIT ( $, .RADIAN. ) );
#218 = EDGE_CURVE ( 'NONE', #114, #2, #70, .T. ) ;
#219 = VECTOR ( 'NONE', #170, 1000.000000000000000 ) ;
#220 = CARTESIAN_POINT ( 'NONE',  ( 1.500000000000000000, 15.00000000000000000, -500.0000000000000000 ) ) ;
#221 = ORIENTED_EDGE ( 'NONE', *, *, #19, .F. ) ;
#222 = LINE ( 'NONE', #220, #156 ) ;
#223 = EDGE_CURVE ( 'NONE', #201, #65, #73, .T. ) ;
#224 = AXIS2_PLACEMENT_3D ( 'NONE', #198, #91, #158 ) ;
#225 = LINE ( 'NONE', #251, #16 ) ;
#226 = EDGE_LOOP ( 'NONE', ( #250, #181, #163, #96 ) ) ;
#227 = ADVANCED_FACE ( 'NONE', ( #246 ), #267, .T. ) ;
#228 = ORIENTED_EDGE ( 'NONE', *, *, #223, .F. ) ;
#229 = ADVANCED_FACE ( 'NONE', ( #71 ), #30, .F. ) ;
#230 = SHAPE_DEFINITION_REPRESENTATION ( #284, #8 ) ;
#231 = DIRECTION ( 'NONE',  ( 0.000000000000000000, 0.000000000000000000, 1.000000000000000000 ) ) ;
#232 = CLOSED_SHELL ( 'NONE', ( #147, #125, #280, #94, #180, #60, #229, #227, #110 ) ) ;
#233 = APPLICATION_PROTOCOL_DEFINITION ( 'draft international standard', 'automotive_design', 1998, #32 ) ;
#234 = DIRECTION ( 'NONE',  ( -0.000000000000000000, -0.000000000000000000, -1.000000000000000000 ) ) ;
#235 = EDGE_CURVE ( 'NONE', #2, #179, #222, .T. ) ;
#236 = DIRECTION ( 'NONE',  ( 0.000000000000000000, -0.000000000000000000, -1.000000000000000000 ) ) ;
#237 = ORIENTED_EDGE ( 'NONE', *, *, #37, .F. ) ;
#238 = CARTESIAN_POINT ( 'NONE',  ( 1.500000000000000000, 15.00000000000000000, 500.0000000000000000 ) ) ;
#239 = VECTOR ( 'NONE', #3, 1000.000000000000000 ) ;
#240 = VERTEX_POINT ( 'NONE', #28 ) ;
#241 = DIRECTION ( 'NONE',  ( 0.000000000000000000, 0.000000000000000000, 1.000000000000000000 ) ) ;
#242 = CARTESIAN_POINT ( 'NONE',  ( 1.500000000000000000, 15.00000000000000000, -500.0000000000000000 ) ) ;
#243 = CARTESIAN_POINT ( 'NONE',  ( 1.500000000000000000, 15.00000000000000000, 500.0000000000000000 ) ) ;
#244 = AXIS2_PLACEMENT_3D ( 'NONE', #17, #168, #195 ) ;
#245 = EDGE_CURVE ( 'NONE', #201, #54, #113, .T. ) ;
#246 = FACE_OUTER_BOUND ( 'NONE', #206, .T. ) ;
#247 = SURFACE_STYLE_FILL_AREA ( #175 ) ;
#248 = ORIENTED_EDGE ( 'NONE', *, *, #85, .F. ) ;
#249 = VECTOR ( 'NONE', #49, 1000.000000000000000 ) ;
#250 = ORIENTED_EDGE ( 'NONE', *, *, #218, .T. ) ;
#251 = CARTESIAN_POINT ( 'NONE',  ( 0.5000000000000035527, 0.000000000000000000, 500.0000000000000000 ) ) ;
#252 = ORIENTED_EDGE ( 'NONE', *, *, #275, .F. ) ;
#253 = VERTEX_POINT ( 'NONE', #176 ) ;
#254 = VECTOR ( 'NONE', #108, 1000.000000000000000 ) ;
#255 = VERTEX_POINT ( 'NONE', #7 ) ;
#256 = CARTESIAN_POINT ( 'NONE',  ( 15.00000000000000000, 0.000000000000000000, 500.0000000000000000 ) ) ;
#257 = CARTESIAN_POINT ( 'NONE',  ( 1.500000000000000000, 15.00000000000000000, 500.0000000000000000 ) ) ;
#258 = EDGE_CURVE ( 'NONE', #182, #139, #138, .T. ) ;
#259 =( GEOMETRIC_REPRESENTATION_CONTEXT ( 3 ) GLOBAL_UNCERTAINTY_ASSIGNED_CONTEXT ( ( #15 ) ) GLOBAL_UNIT_ASSIGNED_CONTEXT ( ( #128, #281, #287 ) ) REPRESENTATION_CONTEXT ( 'NONE', 'WORKASPACE' ) );
#260 = DIRECTION ( 'NONE',  ( -0.000000000000000000, -0.000000000000000000, -1.000000000000000000 ) ) ;
#261 = ORIENTED_EDGE ( 'NONE', *, *, #245, .T. ) ;
#262 = LINE ( 'NONE', #238, #42 ) ;
#263 = CARTESIAN_POINT ( 'NONE',  ( 0.000000000000000000, 0.000000000000000000, 0.000000000000000000 ) ) ;
#264 = PLANE ( 'NONE',  #46 ) ;
#265 = VECTOR ( 'NONE', #21, 1000.000000000000000 ) ;
#266 = EDGE_CURVE ( 'NONE', #162, #141, #225, .T. ) ;
#267 = PLANE ( 'NONE',  #167 ) ;
#268 = CARTESIAN_POINT ( 'NONE',  ( 1.500000000000000000, 15.00000000000000000, 500.0000000000000000 ) ) ;
#269 = APPLICATION_CONTEXT ( 'automotive_design' ) ;
#270 = DIRECTION ( 'NONE',  ( 1.000000000000000000, 0.000000000000000000, -0.000000000000000000 ) ) ;
#271 = DIRECTION ( 'NONE',  ( 1.000000000000000000, 0.000000000000000000, 0.000000000000000000 ) ) ;
#272 = SURFACE_SIDE_STYLE ('',( #247 ) ) ;
#273 = ORIENTED_EDGE ( 'NONE', *, *, #258, .T. ) ;
#274 = ORIENTED_EDGE ( 'NONE', *, *, #37, .T. ) ;
#275 = EDGE_CURVE ( 'NONE', #253, #114, #12, .T. ) ;
#276 = ORIENTED_EDGE ( 'NONE', *, *, #85, .T. ) ;
#277 = AXIS2_PLACEMENT_3D ( 'NONE', #14, #214, #22 ) ;
#278 = ORIENTED_EDGE ( 'NONE', *, *, #132, .T. ) ;
#279 = ORIENTED_EDGE ( 'NONE', *, *, #223, .T. ) ;
#280 = ADVANCED_FACE ( 'NONE', ( #58 ), #66, .T. ) ;
#281 =( NAMED_UNIT ( * ) PLANE_ANGLE_UNIT ( ) SI_UNIT ( $, .RADIAN. ) );
#282 = CARTESIAN_POINT ( 'NONE',  ( 15.00000000000000000, 0.000000000000000000, 500.0000000000000000 ) ) ;
#283 = CARTESIAN_POINT ( 'NONE',  ( 1.500000000000003553, 1.500000000000000000, -500.0000000000000000 ) ) ;
#284 = PRODUCT_DEFINITION_SHAPE ( 'NONE', 'NONE',  #154 ) ;
#285 = CARTESIAN_POINT ( 'NONE',  ( 0.000000000000000000, 0.5000000000000035527, 500.0000000000000000 ) ) ;
#286 = VECTOR ( 'NONE', #5, 1000.000000000000000 ) ;
#287 =( NAMED_UNIT ( * ) SI_UNIT ( $, .STERADIAN. ) SOLID_ANGLE_UNIT ( ) );
#288 = CARTESIAN_POINT ( 'NONE',  ( 1.500000000000003553, 1.500000000000000000, 500.0000000000000000 ) ) ;
ENDSEC;
END-ISO-10303-21;
