ISO-10303-21;
HEADER;
FILE_DESCRIPTION (( 'STEP AP214' ),
    '1' );
FILE_NAME ('B570 Çàãëóøêà êðåïåæíîãî îòâåðñòèÿ ïîä HGHR15 (çåëåíàÿ).STEP',
    '2026-01-28T09:10:22',
    ( '' ),
    ( '' ),
    'SwSTEP 2.0',
    'SolidWorks 2026',
    '' );
FILE_SCHEMA (( 'AUTOMOTIVE_DESIGN' ));
ENDSEC;

DATA;
#1 = VERTEX_POINT ( 'NONE', #296 ) ;
#2 = AXIS2_PLACEMENT_3D ( 'NONE', #106, #258, #227 ) ;
#3 = ORIENTED_EDGE ( 'NONE', *, *, #302, .T. ) ;
#4 = DIRECTION ( 'NONE',  ( -0.000000000000000000, 0.000000000000000000, 1.000000000000000000 ) ) ;
#5 = EDGE_CURVE ( 'NONE', #13, #61, #7, .T. ) ;
#6 = CARTESIAN_POINT ( 'NONE',  ( -1.800000000000000044, 0.000000000000000000, 1.000000000000000000 ) ) ;
#7 = CIRCLE ( 'NONE', #173, 1.800000000000000044 ) ;
#8 = DIRECTION ( 'NONE',  ( -0.000000000000000000, 0.000000000000000000, 1.000000000000000000 ) ) ;
#9 = APPLICATION_PROTOCOL_DEFINITION ( 'draft international standard', 'automotive_design', 1998, #223 ) ;
#10 = EDGE_LOOP ( 'NONE', ( #92, #3 ) ) ;
#11 = AXIS2_PLACEMENT_3D ( 'NONE', #30, #119, #12 ) ;
#12 = DIRECTION ( 'NONE',  ( 1.000000000000000000, 0.000000000000000000, 0.000000000000000000 ) ) ;
#13 = VERTEX_POINT ( 'NONE', #118 ) ;
#14 = EDGE_CURVE ( 'NONE', #13, #269, #191, .T. ) ;
#15 =( NAMED_UNIT ( * ) SI_UNIT ( $, .STERADIAN. ) SOLID_ANGLE_UNIT ( ) );
#16 = CIRCLE ( 'NONE', #44, 0.09999999999999982514 ) ;
#17 = DIRECTION ( 'NONE',  ( 0.000000000000000000, -0.000000000000000000, -1.000000000000000000 ) ) ;
#18 = DIRECTION ( 'NONE',  ( -1.000000000000000000, 1.224646799147353454E-16, 0.000000000000000000 ) ) ;
#19 = ORIENTED_EDGE ( 'NONE', *, *, #145, .T. ) ;
#20 = ADVANCED_FACE ( 'NONE', ( #135 ), #49, .T. ) ;
#21 = ORIENTED_EDGE ( 'NONE', *, *, #58, .T. ) ;
#22 = FACE_OUTER_BOUND ( 'NONE', #257, .T. ) ;
#23 = EDGE_LOOP ( 'NONE', ( #39, #19, #251, #56 ) ) ;
#24 = ORIENTED_EDGE ( 'NONE', *, *, #72, .F. ) ;
#25 = CYLINDRICAL_SURFACE ( 'NONE', #148, 1.800000000000000044 ) ;
#26 = DIRECTION ( 'NONE',  ( -0.000000000000000000, 0.000000000000000000, 1.000000000000000000 ) ) ;
#27 = AXIS2_PLACEMENT_3D ( 'NONE', #272, #195, #301 ) ;
#28 = ADVANCED_FACE ( 'NONE', ( #231 ), #53, .T. ) ;
#29 = CARTESIAN_POINT ( 'NONE',  ( 0.000000000000000000, 0.000000000000000000, 1.600000000000000089 ) ) ;
#30 = CARTESIAN_POINT ( 'NONE',  ( 0.000000000000000000, 0.000000000000000000, 1.600000000000000089 ) ) ;
#31 = EDGE_CURVE ( 'NONE', #90, #206, #225, .T. ) ;
#32 = CARTESIAN_POINT ( 'NONE',  ( 3.150000000000000355, 0.000000000000000000, 1.600000000000000089 ) ) ;
#33 = DIRECTION ( 'NONE',  ( 0.000000000000000000, -0.000000000000000000, -1.000000000000000000 ) ) ;
#34 = CARTESIAN_POINT ( 'NONE',  ( 1.800000000000000044, 2.204364238465235576E-16, 1.000000000000000000 ) ) ;
#35 = ADVANCED_BREP_SHAPE_REPRESENTATION ( 'B570 \X2\041704300433043b04430448043a0430\X0\ \X2\043a04400435043f04350436043d043e0433043e\X0\ \X2\043e0442043204350440044104420438044f\X0\ \X2\043f043e0434\X0\ HGHR15 (\X2\04370435043b0435043d0430044f\X0\)', ( #104, #248 ), #175 ) ;
#36 = AXIS2_PLACEMENT_3D ( 'NONE', #48, #87, #136 ) ;
#37 = PRODUCT ( 'B570 \X2\041704300433043b04430448043a0430\X0\ \X2\043a04400435043f04350436043d043e0433043e\X0\ \X2\043e0442043204350440044104420438044f\X0\ \X2\043f043e0434\X0\ HGHR15 (\X2\04370435043b0435043d0430044f\X0\)', 'B570 \X2\041704300433043b04430448043a0430\X0\ \X2\043a04400435043f04350436043d043e0433043e\X0\ \X2\043e0442043204350440044104420438044f\X0\ \X2\043f043e0434\X0\ HGHR15 (\X2\04370435043b0435043d0430044f\X0\)', '', ( #266 ) ) ;
#38 = CARTESIAN_POINT ( 'NONE',  ( 0.000000000000000000, 0.000000000000000000, 0.000000000000000000 ) ) ;
#39 = ORIENTED_EDGE ( 'NONE', *, *, #172, .F. ) ;
#40 = CARTESIAN_POINT ( 'NONE',  ( -3.150000000000000355, 3.918869757271530460E-16, 1.600000000000000089 ) ) ;
#41 = CIRCLE ( 'NONE', #209, 0.1000000000000000472 ) ;
#42 = EDGE_LOOP ( 'NONE', ( #215, #139 ) ) ;
#43 = LINE ( 'NONE', #133, #194 ) ;
#44 = AXIS2_PLACEMENT_3D ( 'NONE', #246, #222, #18 ) ;
#45 = ORIENTED_EDGE ( 'NONE', *, *, #114, .T. ) ;
#46 = DIRECTION ( 'NONE',  ( -0.000000000000000000, 0.000000000000000000, 1.000000000000000000 ) ) ;
#47 = CIRCLE ( 'NONE', #116, 1.800000000000000044 ) ;
#48 = CARTESIAN_POINT ( 'NONE',  ( 0.000000000000000000, 0.000000000000000000, 1.600000000000000089 ) ) ;
#49 = CYLINDRICAL_SURFACE ( 'NONE', #247, 3.250000000000000444 ) ;
#50 = DIRECTION ( 'NONE',  ( 1.000000000000000000, 0.000000000000000000, 0.000000000000000000 ) ) ;
#51 = ORIENTED_EDGE ( 'NONE', *, *, #233, .T. ) ;
#52 = AXIS2_PLACEMENT_3D ( 'NONE', #288, #68, #237 ) ;
#53 = PLANE ( 'NONE',  #268 ) ;
#54 = CIRCLE ( 'NONE', #287, 3.250000000000000444 ) ;
#55 = CARTESIAN_POINT ( 'NONE',  ( 0.000000000000000000, 0.000000000000000000, 1.500000000000000000 ) ) ;
#56 = ORIENTED_EDGE ( 'NONE', *, *, #233, .F. ) ;
#57 = DIRECTION ( 'NONE',  ( -1.000000000000000000, 0.000000000000000000, 0.000000000000000000 ) ) ;
#58 = EDGE_CURVE ( 'NONE', #176, #269, #47, .T. ) ;
#59 = EDGE_CURVE ( 'NONE', #285, #130, #88, .T. ) ;
#60 = CARTESIAN_POINT ( 'NONE',  ( 0.000000000000000000, 0.000000000000000000, 1.600000000000000089 ) ) ;
#61 = VERTEX_POINT ( 'NONE', #94 ) ;
#62 = ORIENTED_EDGE ( 'NONE', *, *, #145, .F. ) ;
#63 = DIRECTION ( 'NONE',  ( -0.000000000000000000, -0.000000000000000000, -1.000000000000000000 ) ) ;
#64 = ORIENTED_EDGE ( 'NONE', *, *, #234, .F. ) ;
#65 = ORIENTED_EDGE ( 'NONE', *, *, #261, .F. ) ;
#66 = CARTESIAN_POINT ( 'NONE',  ( 0.000000000000000000, 0.000000000000000000, 1.500000000000000000 ) ) ;
#67 = AXIS2_PLACEMENT_3D ( 'NONE', #305, #170, #83 ) ;
#68 = DIRECTION ( 'NONE',  ( -0.000000000000000000, 0.000000000000000000, 1.000000000000000000 ) ) ;
#69 = DIRECTION ( 'NONE',  ( 1.000000000000000000, 0.000000000000000000, 0.000000000000000000 ) ) ;
#70 = CARTESIAN_POINT ( 'NONE',  ( 0.000000000000000000, 0.000000000000000000, 1.000000000000000000 ) ) ;
#71 = TOROIDAL_SURFACE ( 'NONE', #204, 3.150000000000000355, 0.1000000000000000056 ) ;
#72 = EDGE_CURVE ( 'NONE', #282, #304, #212, .T. ) ;
#73 = CARTESIAN_POINT ( 'NONE',  ( 0.000000000000000000, 0.000000000000000000, 1.000000000000000000 ) ) ;
#74 = UNCERTAINTY_MEASURE_WITH_UNIT (LENGTH_MEASURE( 1.000000000000000082E-05 ), #91, 'distance_accuracy_value', 'NONE');
#75 = DIRECTION ( 'NONE',  ( 1.000000000000000000, 0.000000000000000000, 0.000000000000000000 ) ) ;
#76 = FILL_AREA_STYLE ('',( #216 ) ) ;
#77 = AXIS2_PLACEMENT_3D ( 'NONE', #168, #33, #303 ) ;
#78 = DIRECTION ( 'NONE',  ( -0.000000000000000000, 0.000000000000000000, 1.000000000000000000 ) ) ;
#79 = CARTESIAN_POINT ( 'NONE',  ( 3.150000000000000355, 0.000000000000000000, 1.500000000000000000 ) ) ;
#80 = DIRECTION ( 'NONE',  ( 1.000000000000000000, 0.000000000000000000, 0.000000000000000000 ) ) ;
#81 = ORIENTED_EDGE ( 'NONE', *, *, #14, .F. ) ;
#82 = AXIS2_PLACEMENT_3D ( 'NONE', #161, #46, #289 ) ;
#83 = DIRECTION ( 'NONE',  ( 1.000000000000000000, 0.000000000000000000, 0.000000000000000000 ) ) ;
#84 = FACE_OUTER_BOUND ( 'NONE', #42, .T. ) ;
#85 = MECHANICAL_DESIGN_GEOMETRIC_PRESENTATION_REPRESENTATION (  '', ( #157 ), #120 ) ;
#86 = EDGE_LOOP ( 'NONE', ( #131, #226, #238, #24 ) ) ;
#87 = DIRECTION ( 'NONE',  ( -0.000000000000000000, -0.000000000000000000, -1.000000000000000000 ) ) ;
#88 = CIRCLE ( 'NONE', #219, 1.899999999999999911 ) ;
#89 = CARTESIAN_POINT ( 'NONE',  ( -1.899999999999999911, 2.326828918379971365E-16, 1.600000000000000089 ) ) ;
#90 = VERTEX_POINT ( 'NONE', #32 ) ;
#91 =( LENGTH_UNIT ( ) NAMED_UNIT ( * ) SI_UNIT ( .MILLI., .METRE. ) );
#92 = ORIENTED_EDGE ( 'NONE', *, *, #31, .T. ) ;
#93 = AXIS2_PLACEMENT_3D ( 'NONE', #151, #17, #80 ) ;
#94 = CARTESIAN_POINT ( 'NONE',  ( 1.800000000000000044, 2.204364238465235576E-16, 1.500000000000000000 ) ) ;
#95 = ORIENTED_EDGE ( 'NONE', *, *, #5, .T. ) ;
#96 = FACE_OUTER_BOUND ( 'NONE', #156, .T. ) ;
#97 = CARTESIAN_POINT ( 'NONE',  ( 3.250000000000000444, 3.980102097228898231E-16, 0.000000000000000000 ) ) ;
#98 =( LENGTH_UNIT ( ) NAMED_UNIT ( * ) SI_UNIT ( .MILLI., .METRE. ) );
#99 = ORIENTED_EDGE ( 'NONE', *, *, #72, .T. ) ;
#100 = DIRECTION ( 'NONE',  ( -0.000000000000000000, 0.000000000000000000, 1.000000000000000000 ) ) ;
#101 = ORIENTED_EDGE ( 'NONE', *, *, #220, .F. ) ;
#102 = CIRCLE ( 'NONE', #159, 3.250000000000000444 ) ;
#103 = DIRECTION ( 'NONE',  ( 1.000000000000000000, 0.000000000000000000, 0.000000000000000000 ) ) ;
#104 = MANIFOLD_SOLID_BREP ( '\X2\0421043a044004430433043b0435043d04380435\X0\1', #253 ) ;
#105 = EDGE_LOOP ( 'NONE', ( #64, #179, #99, #201 ) ) ;
#106 = CARTESIAN_POINT ( 'NONE',  ( 0.000000000000000000, 0.000000000000000000, 0.000000000000000000 ) ) ;
#107 = AXIS2_PLACEMENT_3D ( 'NONE', #38, #100, #103 ) ;
#108 = AXIS2_PLACEMENT_3D ( 'NONE', #184, #140, #69 ) ;
#109 = ORIENTED_EDGE ( 'NONE', *, *, #114, .F. ) ;
#110 = CARTESIAN_POINT ( 'NONE',  ( 0.000000000000000000, 0.000000000000000000, 1.600000000000000089 ) ) ;
#111 = APPLICATION_CONTEXT ( 'automotive_design' ) ;
#112 = CARTESIAN_POINT ( 'NONE',  ( 0.000000000000000000, 0.000000000000000000, 1.600000000000000089 ) ) ;
#113 = DIRECTION ( 'NONE',  ( 1.000000000000000000, 0.000000000000000000, 0.000000000000000000 ) ) ;
#114 = EDGE_CURVE ( 'NONE', #285, #13, #181, .T. ) ;
#115 = DIRECTION ( 'NONE',  ( 1.000000000000000000, 0.000000000000000000, 0.000000000000000000 ) ) ;
#116 = AXIS2_PLACEMENT_3D ( 'NONE', #73, #26, #75 ) ;
#117 = CARTESIAN_POINT ( 'NONE',  ( -3.250000000000000444, 0.000000000000000000, 1.500000000000000000 ) ) ;
#118 = CARTESIAN_POINT ( 'NONE',  ( -1.800000000000000044, 0.000000000000000000, 1.500000000000000000 ) ) ;
#119 = DIRECTION ( 'NONE',  ( -0.000000000000000000, 0.000000000000000000, 1.000000000000000000 ) ) ;
#120 =( GEOMETRIC_REPRESENTATION_CONTEXT ( 3 ) GLOBAL_UNCERTAINTY_ASSIGNED_CONTEXT ( ( #293 ) ) GLOBAL_UNIT_ASSIGNED_CONTEXT ( ( #98, #149, #15 ) ) REPRESENTATION_CONTEXT ( 'NONE', 'WORKASPACE' ) );
#121 = CARTESIAN_POINT ( 'NONE',  ( -1.899999999999999911, 2.326828918379971365E-16, 1.500000000000000000 ) ) ;
#122 = DIRECTION ( 'NONE',  ( 1.000000000000000000, 0.000000000000000000, 0.000000000000000000 ) ) ;
#123 = PRODUCT_DEFINITION ( 'UNKNOWN', '', #263, #267 ) ;
#124 = DIRECTION ( 'NONE',  ( 1.224646799147353207E-16, 1.000000000000000000, 0.000000000000000000 ) ) ;
#125 = CIRCLE ( 'NONE', #2, 3.250000000000000444 ) ;
#126 = DIRECTION ( 'NONE',  ( -1.000000000000000000, 1.224646799147350742E-16, 0.000000000000000000 ) ) ;
#127 = ADVANCED_FACE ( 'NONE', ( #96 ), #280, .F. ) ;
#128 = DIRECTION ( 'NONE',  ( -0.000000000000000000, 0.000000000000000000, 1.000000000000000000 ) ) ;
#129 = PRESENTATION_LAYER_ASSIGNMENT (  '', '', ( #157 ) ) ;
#130 = VERTEX_POINT ( 'NONE', #244 ) ;
#131 = ORIENTED_EDGE ( 'NONE', *, *, #172, .T. ) ;
#132 = EDGE_LOOP ( 'NONE', ( #62, #279, #51, #171 ) ) ;
#133 = CARTESIAN_POINT ( 'NONE',  ( 1.800000000000000044, 2.204364238465235576E-16, 1.600000000000000089 ) ) ;
#134 = AXIS2_PLACEMENT_3D ( 'NONE', #60, #128, #122 ) ;
#135 = FACE_OUTER_BOUND ( 'NONE', #105, .T. ) ;
#136 = DIRECTION ( 'NONE',  ( -1.000000000000000000, 0.000000000000000000, 0.000000000000000000 ) ) ;
#137 = CIRCLE ( 'NONE', #214, 0.1000000000000000472 ) ;
#138 = FACE_OUTER_BOUND ( 'NONE', #160, .T. ) ;
#139 = ORIENTED_EDGE ( 'NONE', *, *, #200, .F. ) ;
#140 = DIRECTION ( 'NONE',  ( -0.000000000000000000, 0.000000000000000000, 1.000000000000000000 ) ) ;
#141 = DIRECTION ( 'NONE',  ( -0.000000000000000000, -0.000000000000000000, -1.000000000000000000 ) ) ;
#142 =( NAMED_UNIT ( * ) PLANE_ANGLE_UNIT ( ) SI_UNIT ( $, .RADIAN. ) );
#143 = DIRECTION ( 'NONE',  ( -1.000000000000000000, 0.000000000000000000, 0.000000000000000000 ) ) ;
#144 = TOROIDAL_SURFACE ( 'NONE', #82, 1.899999999999999911, 0.1000000000000000056 ) ;
#145 = EDGE_CURVE ( 'NONE', #282, #206, #16, .T. ) ;
#146 = CARTESIAN_POINT ( 'NONE',  ( 0.000000000000000000, 0.000000000000000000, 1.500000000000000000 ) ) ;
#147 = PRODUCT_DEFINITION_SHAPE ( 'NONE', 'NONE',  #123 ) ;
#148 = AXIS2_PLACEMENT_3D ( 'NONE', #110, #202, #286 ) ;
#149 =( NAMED_UNIT ( * ) PLANE_ANGLE_UNIT ( ) SI_UNIT ( $, .RADIAN. ) );
#150 = ORIENTED_EDGE ( 'NONE', *, *, #58, .F. ) ;
#151 = CARTESIAN_POINT ( 'NONE',  ( 0.000000000000000000, 0.000000000000000000, 1.500000000000000000 ) ) ;
#152 = CIRCLE ( 'NONE', #77, 1.899999999999999911 ) ;
#153 = ADVANCED_FACE ( 'NONE', ( #193 ), #254, .T. ) ;
#154 = EDGE_LOOP ( 'NONE', ( #281, #259 ) ) ;
#155 = ORIENTED_EDGE ( 'NONE', *, *, #178, .F. ) ;
#156 = EDGE_LOOP ( 'NONE', ( #203, #307, #290, #150 ) ) ;
#157 = STYLED_ITEM ( 'NONE', ( #273 ), #104 ) ;
#158 = DIRECTION ( 'NONE',  ( 0.000000000000000000, -1.000000000000000000, 0.000000000000000000 ) ) ;
#159 = AXIS2_PLACEMENT_3D ( 'NONE', #55, #196, #218 ) ;
#160 = EDGE_LOOP ( 'NONE', ( #109, #155, #162, #309 ) ) ;
#161 = CARTESIAN_POINT ( 'NONE',  ( 0.000000000000000000, 0.000000000000000000, 1.500000000000000000 ) ) ;
#162 = ORIENTED_EDGE ( 'NONE', *, *, #298, .T. ) ;
#163 = CARTESIAN_POINT ( 'NONE',  ( 1.899999999999999911, 0.000000000000000000, 1.500000000000000000 ) ) ;
#164 = VERTEX_POINT ( 'NONE', #97 ) ;
#165 = EDGE_CURVE ( 'NONE', #1, #282, #102, .T. ) ;
#166 = PLANE ( 'NONE',  #107 ) ;
#167 = DIRECTION ( 'NONE',  ( 0.000000000000000000, -1.000000000000000000, 0.000000000000000000 ) ) ;
#168 = CARTESIAN_POINT ( 'NONE',  ( 0.000000000000000000, 0.000000000000000000, 1.600000000000000089 ) ) ;
#169 = SURFACE_SIDE_STYLE ('',( #224 ) ) ;
#170 = DIRECTION ( 'NONE',  ( -0.000000000000000000, 0.000000000000000000, 1.000000000000000000 ) ) ;
#171 = ORIENTED_EDGE ( 'NONE', *, *, #302, .F. ) ;
#172 = EDGE_CURVE ( 'NONE', #282, #1, #299, .T. ) ;
#173 = AXIS2_PLACEMENT_3D ( 'NONE', #146, #4, #50 ) ;
#174 = CARTESIAN_POINT ( 'NONE',  ( 3.250000000000000444, 3.980102097228898231E-16, 1.600000000000000089 ) ) ;
#175 =( GEOMETRIC_REPRESENTATION_CONTEXT ( 3 ) GLOBAL_UNCERTAINTY_ASSIGNED_CONTEXT ( ( #74 ) ) GLOBAL_UNIT_ASSIGNED_CONTEXT ( ( #91, #142, #240 ) ) REPRESENTATION_CONTEXT ( 'NONE', 'WORKASPACE' ) );
#176 = VERTEX_POINT ( 'NONE', #34 ) ;
#177 = LINE ( 'NONE', #174, #292 ) ;
#178 = EDGE_CURVE ( 'NONE', #130, #285, #152, .T. ) ;
#179 = ORIENTED_EDGE ( 'NONE', *, *, #165, .T. ) ;
#180 = FACE_OUTER_BOUND ( 'NONE', #256, .T. ) ;
#181 = CIRCLE ( 'NONE', #306, 0.1000000000000000472 ) ;
#182 = DIRECTION ( 'NONE',  ( 0.000000000000000000, 0.000000000000000000, -1.000000000000000000 ) ) ;
#183 = ADVANCED_FACE ( 'NONE', ( #217, #274 ), #249, .T. ) ;
#184 = CARTESIAN_POINT ( 'NONE',  ( 0.000000000000000000, 0.000000000000000000, 1.600000000000000089 ) ) ;
#185 = DIRECTION ( 'NONE',  ( 0.000000000000000000, -0.000000000000000000, -1.000000000000000000 ) ) ;
#186 = SHAPE_DEFINITION_REPRESENTATION ( #147, #35 ) ;
#187 = VECTOR ( 'NONE', #141, 1000.000000000000000 ) ;
#188 = CARTESIAN_POINT ( 'NONE',  ( -3.250000000000000444, 0.000000000000000000, 1.600000000000000089 ) ) ;
#189 = DIRECTION ( 'NONE',  ( -0.000000000000000000, 0.000000000000000000, 1.000000000000000000 ) ) ;
#190 = PRODUCT_RELATED_PRODUCT_CATEGORY ( 'part', '', ( #37 ) ) ;
#191 = LINE ( 'NONE', #297, #187 ) ;
#192 = DIRECTION ( 'NONE',  ( -0.000000000000000000, -0.000000000000000000, -1.000000000000000000 ) ) ;
#193 = FACE_OUTER_BOUND ( 'NONE', #23, .T. ) ;
#194 = VECTOR ( 'NONE', #63, 1000.000000000000000 ) ;
#195 = DIRECTION ( 'NONE',  ( -0.000000000000000000, 0.000000000000000000, 1.000000000000000000 ) ) ;
#196 = DIRECTION ( 'NONE',  ( 0.000000000000000000, -0.000000000000000000, -1.000000000000000000 ) ) ;
#197 = CARTESIAN_POINT ( 'NONE',  ( 0.000000000000000000, 0.000000000000000000, 1.600000000000000089 ) ) ;
#198 = COLOUR_RGB ( '',0.7921568627450980005, 0.8196078431372548767, 0.9333333333333333481 ) ;
#199 = ORIENTED_EDGE ( 'NONE', *, *, #220, .T. ) ;
#200 = EDGE_CURVE ( 'NONE', #164, #304, #54, .T. ) ;
#201 = ORIENTED_EDGE ( 'NONE', *, *, #239, .T. ) ;
#202 = DIRECTION ( 'NONE',  ( -0.000000000000000000, -0.000000000000000000, -1.000000000000000000 ) ) ;
#203 = ORIENTED_EDGE ( 'NONE', *, *, #245, .F. ) ;
#204 = AXIS2_PLACEMENT_3D ( 'NONE', #211, #189, #113 ) ;
#205 = ORIENTED_EDGE ( 'NONE', *, *, #298, .F. ) ;
#206 = VERTEX_POINT ( 'NONE', #40 ) ;
#207 = FACE_OUTER_BOUND ( 'NONE', #86, .T. ) ;
#208 = FACE_OUTER_BOUND ( 'NONE', #132, .T. ) ;
#209 = AXIS2_PLACEMENT_3D ( 'NONE', #163, #158, #182 ) ;
#210 = ADVANCED_FACE ( 'NONE', ( #84 ), #166, .F. ) ;
#211 = CARTESIAN_POINT ( 'NONE',  ( 0.000000000000000000, 0.000000000000000000, 1.500000000000000000 ) ) ;
#212 = LINE ( 'NONE', #188, #243 ) ;
#213 = APPLICATION_PROTOCOL_DEFINITION ( 'draft international standard', 'automotive_design', 1998, #111 ) ;
#214 = AXIS2_PLACEMENT_3D ( 'NONE', #79, #167, #255 ) ;
#215 = ORIENTED_EDGE ( 'NONE', *, *, #239, .F. ) ;
#216 = FILL_AREA_STYLE_COLOUR ( '', #198 ) ;
#217 = FACE_OUTER_BOUND ( 'NONE', #10, .T. ) ;
#218 = DIRECTION ( 'NONE',  ( 1.000000000000000000, 0.000000000000000000, 0.000000000000000000 ) ) ;
#219 = AXIS2_PLACEMENT_3D ( 'NONE', #112, #185, #264 ) ;
#220 = EDGE_CURVE ( 'NONE', #269, #176, #262, .T. ) ;
#221 = CIRCLE ( 'NONE', #108, 3.150000000000000355 ) ;
#222 = DIRECTION ( 'NONE',  ( 1.224646799147353207E-16, 1.000000000000000000, 0.000000000000000000 ) ) ;
#223 = APPLICATION_CONTEXT ( 'automotive_design' ) ;
#224 = SURFACE_STYLE_FILL_AREA ( #76 ) ;
#225 = CIRCLE ( 'NONE', #11, 3.150000000000000355 ) ;
#226 = ORIENTED_EDGE ( 'NONE', *, *, #234, .T. ) ;
#227 = DIRECTION ( 'NONE',  ( 1.000000000000000000, 0.000000000000000000, 0.000000000000000000 ) ) ;
#228 = ORIENTED_EDGE ( 'NONE', *, *, #59, .F. ) ;
#229 = DIRECTION ( 'NONE',  ( -0.000000000000000000, 0.000000000000000000, 1.000000000000000000 ) ) ;
#230 = CIRCLE ( 'NONE', #236, 1.800000000000000044 ) ;
#231 = FACE_OUTER_BOUND ( 'NONE', #277, .T. ) ;
#232 = DIRECTION ( 'NONE',  ( 0.000000000000000000, 0.000000000000000000, 1.000000000000000000 ) ) ;
#233 = EDGE_CURVE ( 'NONE', #1, #90, #137, .T. ) ;
#234 = EDGE_CURVE ( 'NONE', #1, #164, #177, .T. ) ;
#235 = CARTESIAN_POINT ( 'NONE',  ( -3.250000000000000444, 0.000000000000000000, 0.000000000000000000 ) ) ;
#236 = AXIS2_PLACEMENT_3D ( 'NONE', #66, #229, #295 ) ;
#237 = DIRECTION ( 'NONE',  ( 1.000000000000000000, 0.000000000000000000, 0.000000000000000000 ) ) ;
#238 = ORIENTED_EDGE ( 'NONE', *, *, #200, .T. ) ;
#239 = EDGE_CURVE ( 'NONE', #304, #164, #125, .T. ) ;
#240 =( NAMED_UNIT ( * ) SI_UNIT ( $, .STERADIAN. ) SOLID_ANGLE_UNIT ( ) );
#241 = DIRECTION ( 'NONE',  ( 1.000000000000000000, 0.000000000000000000, 0.000000000000000000 ) ) ;
#242 = CYLINDRICAL_SURFACE ( 'NONE', #36, 3.250000000000000444 ) ;
#243 = VECTOR ( 'NONE', #294, 1000.000000000000000 ) ;
#244 = CARTESIAN_POINT ( 'NONE',  ( 1.899999999999999911, 0.000000000000000000, 1.600000000000000089 ) ) ;
#245 = EDGE_CURVE ( 'NONE', #61, #176, #43, .T. ) ;
#246 = CARTESIAN_POINT ( 'NONE',  ( -3.150000000000000355, 3.857637417314163182E-16, 1.500000000000000000 ) ) ;
#247 = AXIS2_PLACEMENT_3D ( 'NONE', #29, #192, #143 ) ;
#248 = AXIS2_PLACEMENT_3D ( 'NONE', #291, #232, #115 ) ;
#249 = PLANE ( 'NONE',  #134 ) ;
#250 = ADVANCED_FACE ( 'NONE', ( #22 ), #25, .F. ) ;
#251 = ORIENTED_EDGE ( 'NONE', *, *, #31, .F. ) ;
#252 = DIRECTION ( 'NONE',  ( 1.000000000000000000, 0.000000000000000000, 0.000000000000000000 ) ) ;
#253 = CLOSED_SHELL ( 'NONE', ( #284, #153, #270, #250, #127, #20, #183, #210, #28, #271, #275 ) ) ;
#254 = TOROIDAL_SURFACE ( 'NONE', #67, 3.150000000000000355, 0.1000000000000000056 ) ;
#255 = DIRECTION ( 'NONE',  ( 0.000000000000000000, 0.000000000000000000, -1.000000000000000000 ) ) ;
#256 = EDGE_LOOP ( 'NONE', ( #228, #45, #65, #205 ) ) ;
#257 = EDGE_LOOP ( 'NONE', ( #95, #265, #101, #81 ) ) ;
#258 = DIRECTION ( 'NONE',  ( -0.000000000000000000, 0.000000000000000000, 1.000000000000000000 ) ) ;
#259 = ORIENTED_EDGE ( 'NONE', *, *, #59, .T. ) ;
#260 = TOROIDAL_SURFACE ( 'NONE', #52, 1.899999999999999911, 0.1000000000000000056 ) ;
#261 = EDGE_CURVE ( 'NONE', #61, #13, #230, .T. ) ;
#262 = CIRCLE ( 'NONE', #27, 1.800000000000000044 ) ;
#263 = PRODUCT_DEFINITION_FORMATION_WITH_SPECIFIED_SOURCE ( 'ANY', '', #37, .NOT_KNOWN. ) ;
#264 = DIRECTION ( 'NONE',  ( 1.000000000000000000, 0.000000000000000000, 0.000000000000000000 ) ) ;
#265 = ORIENTED_EDGE ( 'NONE', *, *, #245, .T. ) ;
#266 = PRODUCT_CONTEXT ( 'NONE', #111, 'mechanical' ) ;
#267 = PRODUCT_DEFINITION_CONTEXT ( 'detailed design', #223, 'design' ) ;
#268 = AXIS2_PLACEMENT_3D ( 'NONE', #70, #8, #241 ) ;
#269 = VERTEX_POINT ( 'NONE', #6 ) ;
#270 = ADVANCED_FACE ( 'NONE', ( #207 ), #242, .T. ) ;
#271 = ADVANCED_FACE ( 'NONE', ( #208 ), #71, .T. ) ;
#272 = CARTESIAN_POINT ( 'NONE',  ( 0.000000000000000000, 0.000000000000000000, 1.000000000000000000 ) ) ;
#273 = PRESENTATION_STYLE_ASSIGNMENT (( #278 ) ) ;
#274 = FACE_BOUND ( 'NONE', #154, .T. ) ;
#275 = ADVANCED_FACE ( 'NONE', ( #138 ), #144, .T. ) ;
#276 = AXIS2_PLACEMENT_3D ( 'NONE', #197, #308, #57 ) ;
#277 = EDGE_LOOP ( 'NONE', ( #199, #21 ) ) ;
#278 = SURFACE_STYLE_USAGE ( .BOTH. , #169 ) ;
#279 = ORIENTED_EDGE ( 'NONE', *, *, #165, .F. ) ;
#280 = CYLINDRICAL_SURFACE ( 'NONE', #276, 1.800000000000000044 ) ;
#281 = ORIENTED_EDGE ( 'NONE', *, *, #178, .T. ) ;
#282 = VERTEX_POINT ( 'NONE', #117 ) ;
#283 = DIRECTION ( 'NONE',  ( -0.000000000000000000, -0.000000000000000000, -1.000000000000000000 ) ) ;
#284 = ADVANCED_FACE ( 'NONE', ( #180 ), #260, .T. ) ;
#285 = VERTEX_POINT ( 'NONE', #89 ) ;
#286 = DIRECTION ( 'NONE',  ( -1.000000000000000000, 0.000000000000000000, 0.000000000000000000 ) ) ;
#287 = AXIS2_PLACEMENT_3D ( 'NONE', #300, #78, #252 ) ;
#288 = CARTESIAN_POINT ( 'NONE',  ( 0.000000000000000000, 0.000000000000000000, 1.500000000000000000 ) ) ;
#289 = DIRECTION ( 'NONE',  ( 1.000000000000000000, 0.000000000000000000, 0.000000000000000000 ) ) ;
#290 = ORIENTED_EDGE ( 'NONE', *, *, #14, .T. ) ;
#291 = CARTESIAN_POINT ( 'NONE',  ( 0.000000000000000000, 0.000000000000000000, 0.000000000000000000 ) ) ;
#292 = VECTOR ( 'NONE', #283, 1000.000000000000000 ) ;
#293 = UNCERTAINTY_MEASURE_WITH_UNIT (LENGTH_MEASURE( 1.000000000000000082E-05 ), #98, 'distance_accuracy_value', 'NONE');
#294 = DIRECTION ( 'NONE',  ( -0.000000000000000000, -0.000000000000000000, -1.000000000000000000 ) ) ;
#295 = DIRECTION ( 'NONE',  ( 1.000000000000000000, 0.000000000000000000, 0.000000000000000000 ) ) ;
#296 = CARTESIAN_POINT ( 'NONE',  ( 3.250000000000000444, 3.980102097228898231E-16, 1.500000000000000000 ) ) ;
#297 = CARTESIAN_POINT ( 'NONE',  ( -1.800000000000000044, 0.000000000000000000, 1.600000000000000089 ) ) ;
#298 = EDGE_CURVE ( 'NONE', #130, #61, #41, .T. ) ;
#299 = CIRCLE ( 'NONE', #93, 3.250000000000000444 ) ;
#300 = CARTESIAN_POINT ( 'NONE',  ( 0.000000000000000000, 0.000000000000000000, 0.000000000000000000 ) ) ;
#301 = DIRECTION ( 'NONE',  ( 1.000000000000000000, 0.000000000000000000, 0.000000000000000000 ) ) ;
#302 = EDGE_CURVE ( 'NONE', #206, #90, #221, .T. ) ;
#303 = DIRECTION ( 'NONE',  ( 1.000000000000000000, 0.000000000000000000, 0.000000000000000000 ) ) ;
#304 = VERTEX_POINT ( 'NONE', #235 ) ;
#305 = CARTESIAN_POINT ( 'NONE',  ( 0.000000000000000000, 0.000000000000000000, 1.500000000000000000 ) ) ;
#306 = AXIS2_PLACEMENT_3D ( 'NONE', #121, #124, #126 ) ;
#307 = ORIENTED_EDGE ( 'NONE', *, *, #261, .T. ) ;
#308 = DIRECTION ( 'NONE',  ( -0.000000000000000000, -0.000000000000000000, -1.000000000000000000 ) ) ;
#309 = ORIENTED_EDGE ( 'NONE', *, *, #5, .F. ) ;
ENDSEC;
END-ISO-10303-21;
