ISO-10303-21;
HEADER;
FILE_DESCRIPTION (( 'STEP AP214' ),
    '1' );
FILE_NAME ('A202 Äèñòàíöèîííàÿ âòóëêà 5õ1 4.STEP',
    '2020-10-06T12:21:58',
    ( 'Windows User' ),
    ( '' ),
    'SwSTEP 2.0',
    'SolidWorks 2020',
    '' );
FILE_SCHEMA (( 'AUTOMOTIVE_DESIGN' ));
ENDSEC;

DATA;
#1 = DIRECTION ( 'NONE',  ( -1.000000000000000000, -0.0000000000000000000, -0.0000000000000000000 ) ) ;
#2 = AXIS2_PLACEMENT_3D ( 'NONE', #76, #327, #316 ) ;
#3 = VECTOR ( 'NONE', #178, 1000.000000000000000 ) ;
#4 = PRODUCT_RELATED_PRODUCT_CATEGORY ( 'part', '', ( #18 ) ) ;
#5 =( GEOMETRIC_REPRESENTATION_CONTEXT ( 3 ) GLOBAL_UNCERTAINTY_ASSIGNED_CONTEXT ( ( #326 ) ) GLOBAL_UNIT_ASSIGNED_CONTEXT ( ( #348, #42, #75 ) ) REPRESENTATION_CONTEXT ( 'NONE', 'WORKASPACE' ) );
#6 = CARTESIAN_POINT ( 'NONE',  ( 3.174999999999999822, 6.123233995736765296E-16, -4.999999999999999112 ) ) ;
#7 = DIRECTION ( 'NONE',  ( -1.000000000000000000, -0.0000000000000000000, -0.0000000000000000000 ) ) ;
#8 = DIRECTION ( 'NONE',  ( 1.000000000000000000, 0.0000000000000000000, 0.0000000000000000000 ) ) ;
#9 = ORIENTED_EDGE ( 'NONE', *, *, #286, .F. ) ;
#10 = CLOSED_SHELL ( 'NONE', ( #203, #347, #117, #239, #209, #188, #351, #161, #252, #172, #175, #13 ) ) ;
#11 = APPLICATION_CONTEXT ( 'automotive_design' ) ;
#12 = VECTOR ( 'NONE', #61, 999.9999999999998863 ) ;
#13 = ADVANCED_FACE ( 'NONE', ( #108 ), #357, .T. ) ;
#14 = PRODUCT_DEFINITION_SHAPE ( 'NONE', 'NONE',  #281 ) ;
#15 = ORIENTED_EDGE ( 'NONE', *, *, #305, .T. ) ;
#16 =( NAMED_UNIT ( * ) PLANE_ANGLE_UNIT ( ) SI_UNIT ( $, .RADIAN. ) );
#17 = STYLED_ITEM ( 'NONE', ( #227 ), #317 ) ;
#18 = PRODUCT ( 'A202 Äèñòàíöèîííàÿ âòóëêà 5õ1 4', 'A202 Äèñòàíöèîííàÿ âòóëêà 5õ1 4', '', ( #22 ) ) ;
#19 = DIRECTION ( 'NONE',  ( 0.7071067811865430208, 0.0000000000000000000, -0.7071067811865521247 ) ) ;
#20 = CYLINDRICAL_SURFACE ( 'NONE', #66, 4.999999999999999112 ) ;
#21 = CARTESIAN_POINT ( 'NONE',  ( -3.174999999999999822, 0.0000000000000000000, 0.0000000000000000000 ) ) ;
#22 = PRODUCT_CONTEXT ( 'NONE', #356, 'mechanical' ) ;
#23 = FACE_OUTER_BOUND ( 'NONE', #145, .T. ) ;
#24 = ORIENTED_EDGE ( 'NONE', *, *, #32, .T. ) ;
#25 = VERTEX_POINT ( 'NONE', #329 ) ;
#26 = DIRECTION ( 'NONE',  ( 1.000000000000000000, -0.0000000000000000000, -0.0000000000000000000 ) ) ;
#27 = CARTESIAN_POINT ( 'NONE',  ( 3.174999999999999822, 3.214697847761802076E-16, -2.625000000000000000 ) ) ;
#28 = VERTEX_POINT ( 'NONE', #268 ) ;
#29 = CARTESIAN_POINT ( 'NONE',  ( 2.974999999999997868, 0.0000000000000000000, 0.0000000000000000000 ) ) ;
#30 = PRESENTATION_LAYER_ASSIGNMENT (  '', '', ( #17 ) ) ;
#31 = DIRECTION ( 'NONE',  ( 0.0000000000000000000, 0.0000000000000000000, -1.000000000000000000 ) ) ;
#32 = EDGE_CURVE ( 'NONE', #207, #39, #132, .T. ) ;
#33 = AXIS2_PLACEMENT_3D ( 'NONE', #89, #26, #139 ) ;
#34 = CARTESIAN_POINT ( 'NONE',  ( -3.174999999999999822, 3.214697847761802076E-16, -2.625000000000000000 ) ) ;
#35 = LINE ( 'NONE', #183, #84 ) ;
#36 = SURFACE_STYLE_USAGE ( .BOTH. , #336 ) ;
#37 = AXIS2_PLACEMENT_3D ( 'NONE', #264, #358, #88 ) ;
#38 = EDGE_CURVE ( 'NONE', #28, #345, #194, .T. ) ;
#39 = VERTEX_POINT ( 'NONE', #250 ) ;
#40 = CIRCLE ( 'NONE', #95, 2.825000000000004619 ) ;
#41 = CIRCLE ( 'NONE', #47, 4.899999999999997691 ) ;
#42 =( NAMED_UNIT ( * ) PLANE_ANGLE_UNIT ( ) SI_UNIT ( $, .RADIAN. ) );
#43 = FACE_BOUND ( 'NONE', #205, .T. ) ;
#44 = PLANE ( 'NONE',  #153 ) ;
#45 = DIRECTION ( 'NONE',  ( 0.0000000000000000000, 0.0000000000000000000, -1.000000000000000000 ) ) ;
#46 = AXIS2_PLACEMENT_3D ( 'NONE', #94, #249, #280 ) ;
#47 = AXIS2_PLACEMENT_3D ( 'NONE', #51, #124, #104 ) ;
#48 = PRODUCT_DEFINITION_CONTEXT ( 'detailed design', #11, 'design' ) ;
#49 = DIRECTION ( 'NONE',  ( -1.000000000000000000, -0.0000000000000000000, -0.0000000000000000000 ) ) ;
#50 = ORIENTED_EDGE ( 'NONE', *, *, #226, .T. ) ;
#51 = CARTESIAN_POINT ( 'NONE',  ( 3.174999999999999822, 0.0000000000000000000, 0.0000000000000000000 ) ) ;
#52 = DIRECTION ( 'NONE',  ( 1.000000000000000000, 0.0000000000000000000, 0.0000000000000000000 ) ) ;
#53 = ORIENTED_EDGE ( 'NONE', *, *, #71, .F. ) ;
#54 = EDGE_CURVE ( 'NONE', #39, #228, #187, .T. ) ;
#55 = CARTESIAN_POINT ( 'NONE',  ( 3.074999999999998845, 0.0000000000000000000, 0.0000000000000000000 ) ) ;
#56 = ORIENTED_EDGE ( 'NONE', *, *, #38, .T. ) ;
#57 = DIRECTION ( 'NONE',  ( 0.0000000000000000000, 0.0000000000000000000, -1.000000000000000000 ) ) ;
#58 = VECTOR ( 'NONE', #279, 1000.000000000000000 ) ;
#59 = DIRECTION ( 'NONE',  ( -1.000000000000000000, -0.0000000000000000000, -0.0000000000000000000 ) ) ;
#60 = ORIENTED_EDGE ( 'NONE', *, *, #100, .T. ) ;
#61 = DIRECTION ( 'NONE',  ( 0.7071067811865430208, 8.659560562354992023E-17, 0.7071067811865521247 ) ) ;
#62 = DIRECTION ( 'NONE',  ( 1.000000000000000000, 0.0000000000000000000, 0.0000000000000000000 ) ) ;
#63 = ORIENTED_EDGE ( 'NONE', *, *, #129, .T. ) ;
#64 = DIRECTION ( 'NONE',  ( 0.0000000000000000000, 0.0000000000000000000, 1.000000000000000000 ) ) ;
#65 = LINE ( 'NONE', #6, #110 ) ;
#66 = AXIS2_PLACEMENT_3D ( 'NONE', #208, #49, #242 ) ;
#67 = DIRECTION ( 'NONE',  ( 0.0000000000000000000, 0.0000000000000000000, 1.000000000000000000 ) ) ;
#68 = EDGE_CURVE ( 'NONE', #218, #272, #167, .T. ) ;
#69 = EDGE_LOOP ( 'NONE', ( #113, #275, #201, #135 ) ) ;
#70 = VERTEX_POINT ( 'NONE', #181 ) ;
#71 = EDGE_CURVE ( 'NONE', #39, #97, #362, .T. ) ;
#72 = CARTESIAN_POINT ( 'NONE',  ( -3.074999999999999734, 6.123233995736765296E-16, -4.999999999999999112 ) ) ;
#73 = SURFACE_STYLE_FILL_AREA ( #107 ) ;
#74 = ORIENTED_EDGE ( 'NONE', *, *, #226, .F. ) ;
#75 =( NAMED_UNIT ( * ) SI_UNIT ( $, .STERADIAN. ) SOLID_ANGLE_UNIT ( ) );
#76 = CARTESIAN_POINT ( 'NONE',  ( 3.174999999999999822, 0.0000000000000000000, 0.0000000000000000000 ) ) ;
#77 = VERTEX_POINT ( 'NONE', #237 ) ;
#78 =( NAMED_UNIT ( * ) SI_UNIT ( $, .STERADIAN. ) SOLID_ANGLE_UNIT ( ) );
#79 = CARTESIAN_POINT ( 'NONE',  ( 3.174999999999999822, 0.0000000000000000000, 0.0000000000000000000 ) ) ;
#80 = EDGE_LOOP ( 'NONE', ( #90, #106, #63, #147 ) ) ;
#81 = DIRECTION ( 'NONE',  ( 0.0000000000000000000, 0.0000000000000000000, -1.000000000000000000 ) ) ;
#82 = FACE_OUTER_BOUND ( 'NONE', #112, .T. ) ;
#83 = CIRCLE ( 'NONE', #277, 2.825000000000004619 ) ;
#84 = VECTOR ( 'NONE', #120, 1000.000000000000000 ) ;
#85 = DIRECTION ( 'NONE',  ( 0.0000000000000000000, 0.0000000000000000000, 1.000000000000000000 ) ) ;
#86 = DIRECTION ( 'NONE',  ( 1.000000000000000000, -0.0000000000000000000, -0.0000000000000000000 ) ) ;
#87 = EDGE_CURVE ( 'NONE', #77, #282, #140, .T. ) ;
#88 = DIRECTION ( 'NONE',  ( 0.0000000000000000000, 0.0000000000000000000, 1.000000000000000000 ) ) ;
#89 = CARTESIAN_POINT ( 'NONE',  ( -3.074999999999999734, 0.0000000000000000000, 0.0000000000000000000 ) ) ;
#90 = ORIENTED_EDGE ( 'NONE', *, *, #68, .T. ) ;
#91 = DIRECTION ( 'NONE',  ( 0.0000000000000000000, 0.0000000000000000000, -1.000000000000000000 ) ) ;
#92 = ORIENTED_EDGE ( 'NONE', *, *, #333, .T. ) ;
#93 = DIRECTION ( 'NONE',  ( -1.000000000000000000, -0.0000000000000000000, -0.0000000000000000000 ) ) ;
#94 = CARTESIAN_POINT ( 'NONE',  ( 2.974999999999997868, 0.0000000000000000000, 0.0000000000000000000 ) ) ;
#95 = AXIS2_PLACEMENT_3D ( 'NONE', #273, #270, #276 ) ;
#96 =( GEOMETRIC_REPRESENTATION_CONTEXT ( 3 ) GLOBAL_UNCERTAINTY_ASSIGNED_CONTEXT ( ( #290 ) ) GLOBAL_UNIT_ASSIGNED_CONTEXT ( ( #262, #232, #78 ) ) REPRESENTATION_CONTEXT ( 'NONE', 'WORKASPACE' ) );
#97 = VERTEX_POINT ( 'NONE', #159 ) ;
#98 = LINE ( 'NONE', #204, #182 ) ;
#99 = ORIENTED_EDGE ( 'NONE', *, *, #197, .T. ) ;
#100 = EDGE_CURVE ( 'NONE', #149, #218, #220, .T. ) ;
#101 = FACE_OUTER_BOUND ( 'NONE', #311, .T. ) ;
#102 = AXIS2_PLACEMENT_3D ( 'NONE', #307, #1, #64 ) ;
#103 = SURFACE_STYLE_USAGE ( .BOTH. , #315 ) ;
#104 = DIRECTION ( 'NONE',  ( 0.0000000000000000000, 0.0000000000000000000, -1.000000000000000000 ) ) ;
#105 = DIRECTION ( 'NONE',  ( 0.0000000000000000000, 0.0000000000000000000, -1.000000000000000000 ) ) ;
#106 = ORIENTED_EDGE ( 'NONE', *, *, #286, .T. ) ;
#107 = FILL_AREA_STYLE ('',( #312 ) ) ;
#108 = FACE_OUTER_BOUND ( 'NONE', #156, .T. ) ;
#109 = STYLED_ITEM ( 'NONE', ( #196 ), #309 ) ;
#110 = VECTOR ( 'NONE', #7, 1000.000000000000000 ) ;
#111 = FACE_OUTER_BOUND ( 'NONE', #180, .T. ) ;
#112 = EDGE_LOOP ( 'NONE', ( #174, #359, #114, #261 ) ) ;
#113 = ORIENTED_EDGE ( 'NONE', *, *, #305, .F. ) ;
#114 = ORIENTED_EDGE ( 'NONE', *, *, #129, .F. ) ;
#115 = DIRECTION ( 'NONE',  ( -1.000000000000000000, 0.0000000000000000000, 0.0000000000000000000 ) ) ;
#116 = EDGE_CURVE ( 'NONE', #70, #228, #40, .T. ) ;
#117 = ADVANCED_FACE ( 'NONE', ( #325 ), #278, .F. ) ;
#118 = FILL_AREA_STYLE ('',( #143 ) ) ;
#119 = AXIS2_PLACEMENT_3D ( 'NONE', #335, #86, #337 ) ;
#120 = DIRECTION ( 'NONE',  ( 0.7071067811865505703, 0.0000000000000000000, -0.7071067811865444641 ) ) ;
#121 = ORIENTED_EDGE ( 'NONE', *, *, #314, .T. ) ;
#122 = CONICAL_SURFACE ( 'NONE', #206, 4.899999999999997691, 0.7853981633974482790 ) ;
#123 = AXIS2_PLACEMENT_3D ( 'NONE', #224, #193, #164 ) ;
#124 = DIRECTION ( 'NONE',  ( 1.000000000000000000, 0.0000000000000000000, 0.0000000000000000000 ) ) ;
#125 = AXIS2_PLACEMENT_3D ( 'NONE', #163, #115, #81 ) ;
#126 = CARTESIAN_POINT ( 'NONE',  ( -3.174999999999999822, 0.0000000000000000000, 0.0000000000000000000 ) ) ;
#127 = FACE_BOUND ( 'NONE', #318, .T. ) ;
#128 = CARTESIAN_POINT ( 'NONE',  ( -3.074999999999999734, 0.0000000000000000000, 0.0000000000000000000 ) ) ;
#129 = EDGE_CURVE ( 'NONE', #345, #28, #341, .T. ) ;
#130 = ORIENTED_EDGE ( 'NONE', *, *, #155, .F. ) ;
#131 = DIRECTION ( 'NONE',  ( 0.0000000000000000000, 0.0000000000000000000, -1.000000000000000000 ) ) ;
#132 = CIRCLE ( 'NONE', #296, 2.625000000000000000 ) ;
#133 = DIRECTION ( 'NONE',  ( 0.0000000000000000000, 0.0000000000000000000, -1.000000000000000000 ) ) ;
#134 = EDGE_LOOP ( 'NONE', ( #258, #292, #121, #213 ) ) ;
#135 = ORIENTED_EDGE ( 'NONE', *, *, #333, .F. ) ;
#136 = ORIENTED_EDGE ( 'NONE', *, *, #230, .T. ) ;
#137 = DIRECTION ( 'NONE',  ( 1.000000000000000000, 0.0000000000000000000, 0.0000000000000000000 ) ) ;
#138 = DIRECTION ( 'NONE',  ( 1.000000000000000000, 0.0000000000000000000, 0.0000000000000000000 ) ) ;
#139 = DIRECTION ( 'NONE',  ( 0.0000000000000000000, 0.0000000000000000000, -1.000000000000000000 ) ) ;
#140 = CIRCLE ( 'NONE', #349, 4.899999999999999467 ) ;
#141 = DIRECTION ( 'NONE',  ( -1.000000000000000000, 0.0000000000000000000, 0.0000000000000000000 ) ) ;
#142 = EDGE_CURVE ( 'NONE', #207, #236, #271, .T. ) ;
#143 = FILL_AREA_STYLE_COLOUR ( '', #251 ) ;
#144 = AXIS2_PLACEMENT_3D ( 'NONE', #288, #216, #105 ) ;
#145 = EDGE_LOOP ( 'NONE', ( #9, #50, #136, #56 ) ) ;
#146 = EDGE_CURVE ( 'NONE', #25, #272, #234, .T. ) ;
#147 = ORIENTED_EDGE ( 'NONE', *, *, #230, .F. ) ;
#148 = CIRCLE ( 'NONE', #123, 4.899999999999997691 ) ;
#149 = VERTEX_POINT ( 'NONE', #274 ) ;
#150 = CIRCLE ( 'NONE', #46, 2.625000000000000000 ) ;
#151 = LINE ( 'NONE', #285, #3 ) ;
#152 = FACE_OUTER_BOUND ( 'NONE', #331, .T. ) ;
#153 = AXIS2_PLACEMENT_3D ( 'NONE', #126, #321, #289 ) ;
#154 = DIRECTION ( 'NONE',  ( 1.000000000000000000, -0.0000000000000000000, -0.0000000000000000000 ) ) ;
#155 = EDGE_CURVE ( 'NONE', #228, #70, #83, .T. ) ;
#156 = EDGE_LOOP ( 'NONE', ( #225, #162, #60, #74 ) ) ;
#157 = DIRECTION ( 'NONE',  ( -1.000000000000000000, -0.0000000000000000000, -0.0000000000000000000 ) ) ;
#158 = DIRECTION ( 'NONE',  ( -0.7071067811865474617, 8.659560562354932858E-17, -0.7071067811865474617 ) ) ;
#159 = CARTESIAN_POINT ( 'NONE',  ( -3.174999999999999822, 0.0000000000000000000, 2.625000000000000000 ) ) ;
#160 = CIRCLE ( 'NONE', #144, 4.899999999999999467 ) ;
#161 = ADVANCED_FACE ( 'NONE', ( #23 ), #20, .T. ) ;
#162 = ORIENTED_EDGE ( 'NONE', *, *, #255, .F. ) ;
#163 = CARTESIAN_POINT ( 'NONE',  ( 3.074999999999998845, 0.0000000000000000000, 0.0000000000000000000 ) ) ;
#164 = DIRECTION ( 'NONE',  ( 0.0000000000000000000, 0.0000000000000000000, -1.000000000000000000 ) ) ;
#165 = ORIENTED_EDGE ( 'NONE', *, *, #68, .F. ) ;
#166 = CYLINDRICAL_SURFACE ( 'NONE', #283, 2.625000000000000000 ) ;
#167 = CIRCLE ( 'NONE', #125, 4.999999999999999112 ) ;
#168 = AXIS2_PLACEMENT_3D ( 'NONE', #291, #52, #131 ) ;
#169 = LINE ( 'NONE', #191, #58 ) ;
#170 = DIRECTION ( 'NONE',  ( 0.0000000000000000000, 0.0000000000000000000, -1.000000000000000000 ) ) ;
#171 = COLOUR_RGB ( '',0.8666666666666666963, 0.9098039215686274384, 1.000000000000000000 ) ;
#172 = ADVANCED_FACE ( 'NONE', ( #111 ), #322, .F. ) ;
#173 = UNCERTAINTY_MEASURE_WITH_UNIT (LENGTH_MEASURE( 1.000000000000000082E-05 ), #256, 'distance_accuracy_value', 'NONE');
#174 = ORIENTED_EDGE ( 'NONE', *, *, #197, .F. ) ;
#175 = ADVANCED_FACE ( 'NONE', ( #185 ), #199, .T. ) ;
#176 = VECTOR ( 'NONE', #59, 1000.000000000000000 ) ;
#177 = DIRECTION ( 'NONE',  ( 0.0000000000000000000, 0.0000000000000000000, -1.000000000000000000 ) ) ;
#178 = DIRECTION ( 'NONE',  ( 0.7071067811865505703, 8.659560562354895880E-17, 0.7071067811865444641 ) ) ;
#179 = FACE_OUTER_BOUND ( 'NONE', #80, .T. ) ;
#180 = EDGE_LOOP ( 'NONE', ( #265, #297, #92, #130 ) ) ;
#181 = CARTESIAN_POINT ( 'NONE',  ( 3.174999999999999822, 0.0000000000000000000, -2.825000000000004619 ) ) ;
#182 = VECTOR ( 'NONE', #19, 999.9999999999998863 ) ;
#183 = CARTESIAN_POINT ( 'NONE',  ( -3.074999999999999734, 0.0000000000000000000, -4.999999999999999112 ) ) ;
#184 = CARTESIAN_POINT ( 'NONE',  ( 2.974999999999997868, 0.0000000000000000000, 0.0000000000000000000 ) ) ;
#185 = FACE_OUTER_BOUND ( 'NONE', #134, .T. ) ;
#186 = ORIENTED_EDGE ( 'NONE', *, *, #301, .T. ) ;
#187 = LINE ( 'NONE', #295, #12 ) ;
#188 = ADVANCED_FACE ( 'NONE', ( #267, #127 ), #235, .T. ) ;
#189 = EDGE_LOOP ( 'NONE', ( #15, #343, #240, #53 ) ) ;
#190 = DIRECTION ( 'NONE',  ( 0.0000000000000000000, 0.0000000000000000000, 1.000000000000000000 ) ) ;
#191 = CARTESIAN_POINT ( 'NONE',  ( 3.174999999999999822, 0.0000000000000000000, 4.999999999999999112 ) ) ;
#192 = CARTESIAN_POINT ( 'NONE',  ( 3.174999999999999822, 3.459627207591278585E-16, 2.825000000000004619 ) ) ;
#193 = DIRECTION ( 'NONE',  ( 1.000000000000000000, 0.0000000000000000000, 0.0000000000000000000 ) ) ;
#194 = CIRCLE ( 'NONE', #33, 4.999999999999999112 ) ;
#195 = CIRCLE ( 'NONE', #334, 2.625000000000000000 ) ;
#196 = PRESENTATION_STYLE_ASSIGNMENT (( #36 ) ) ;
#197 = EDGE_CURVE ( 'NONE', #282, #77, #160, .T. ) ;
#198 = ORIENTED_EDGE ( 'NONE', *, *, #116, .T. ) ;
#199 = CONICAL_SURFACE ( 'NONE', #287, 4.999999999999999112, 0.7853981633974439491 ) ;
#200 = CONICAL_SURFACE ( 'NONE', #308, 4.999999999999999112, 0.7853981633974439491 ) ;
#201 = ORIENTED_EDGE ( 'NONE', *, *, #116, .F. ) ;
#202 = AXIS2_PLACEMENT_3D ( 'NONE', #245, #299, #62 ) ;
#203 = ADVANCED_FACE ( 'NONE', ( #152 ), #122, .T. ) ;
#204 = CARTESIAN_POINT ( 'NONE',  ( 2.974999999999997868, 0.0000000000000000000, -2.625000000000000000 ) ) ;
#205 = EDGE_LOOP ( 'NONE', ( #302, #186 ) ) ;
#206 = AXIS2_PLACEMENT_3D ( 'NONE', #211, #323, #85 ) ;
#207 = VERTEX_POINT ( 'NONE', #320 ) ;
#208 = CARTESIAN_POINT ( 'NONE',  ( 3.174999999999999822, 0.0000000000000000000, 0.0000000000000000000 ) ) ;
#209 = ADVANCED_FACE ( 'NONE', ( #179 ), #238, .T. ) ;
#210 = EDGE_LOOP ( 'NONE', ( #257, #269 ) ) ;
#211 = CARTESIAN_POINT ( 'NONE',  ( 3.174999999999999822, 0.0000000000000000000, 0.0000000000000000000 ) ) ;
#212 = VECTOR ( 'NONE', #214, 1000.000000000000114 ) ;
#213 = ORIENTED_EDGE ( 'NONE', *, *, #38, .F. ) ;
#214 = DIRECTION ( 'NONE',  ( -0.7071067811865474617, 0.0000000000000000000, 0.7071067811865474617 ) ) ;
#215 =( GEOMETRIC_REPRESENTATION_CONTEXT ( 3 ) GLOBAL_UNCERTAINTY_ASSIGNED_CONTEXT ( ( #173 ) ) GLOBAL_UNIT_ASSIGNED_CONTEXT ( ( #256, #16, #266 ) ) REPRESENTATION_CONTEXT ( 'NONE', 'WORKASPACE' ) );
#216 = DIRECTION ( 'NONE',  ( -1.000000000000000000, -0.0000000000000000000, -0.0000000000000000000 ) ) ;
#217 = ORIENTED_EDGE ( 'NONE', *, *, #71, .T. ) ;
#218 = VERTEX_POINT ( 'NONE', #294 ) ;
#219 = ORIENTED_EDGE ( 'NONE', *, *, #364, .F. ) ;
#220 = LINE ( 'NONE', #332, #212 ) ;
#221 = MECHANICAL_DESIGN_GEOMETRIC_PRESENTATION_REPRESENTATION (  '', ( #109 ), #215 ) ;
#222 = MECHANICAL_DESIGN_GEOMETRIC_PRESENTATION_REPRESENTATION (  '', ( #17 ), #5 ) ;
#223 = CARTESIAN_POINT ( 'NONE',  ( 3.174999999999999822, 0.0000000000000000000, 0.0000000000000000000 ) ) ;
#224 = CARTESIAN_POINT ( 'NONE',  ( 3.174999999999999822, 0.0000000000000000000, 0.0000000000000000000 ) ) ;
#225 = ORIENTED_EDGE ( 'NONE', *, *, #146, .F. ) ;
#226 = EDGE_CURVE ( 'NONE', #272, #218, #260, .T. ) ;
#227 = PRESENTATION_STYLE_ASSIGNMENT (( #103 ) ) ;
#228 = VERTEX_POINT ( 'NONE', #192 ) ;
#229 = VECTOR ( 'NONE', #157, 1000.000000000000000 ) ;
#230 = EDGE_CURVE ( 'NONE', #218, #28, #169, .T. ) ;
#231 = ORIENTED_EDGE ( 'NONE', *, *, #155, .T. ) ;
#232 =( NAMED_UNIT ( * ) PLANE_ANGLE_UNIT ( ) SI_UNIT ( $, .RADIAN. ) );
#233 = CIRCLE ( 'NONE', #306, 2.625000000000000000 ) ;
#234 = LINE ( 'NONE', #330, #313 ) ;
#235 = PLANE ( 'NONE',  #2 ) ;
#236 = VERTEX_POINT ( 'NONE', #34 ) ;
#237 = CARTESIAN_POINT ( 'NONE',  ( -3.174999999999999822, 0.0000000000000000000, -4.899999999999999467 ) ) ;
#238 = CYLINDRICAL_SURFACE ( 'NONE', #37, 4.999999999999999112 ) ;
#239 = ADVANCED_FACE ( 'NONE', ( #339 ), #254, .F. ) ;
#240 = ORIENTED_EDGE ( 'NONE', *, *, #344, .F. ) ;
#241 = SHAPE_DEFINITION_REPRESENTATION ( #14, #317 ) ;
#242 = DIRECTION ( 'NONE',  ( 0.0000000000000000000, 0.0000000000000000000, 1.000000000000000000 ) ) ;
#243 = ORIENTED_EDGE ( 'NONE', *, *, #301, .F. ) ;
#244 = CARTESIAN_POINT ( 'NONE',  ( 3.174999999999999822, 0.0000000000000000000, 2.625000000000000000 ) ) ;
#245 = CARTESIAN_POINT ( 'NONE',  ( 0.0000000000000000000, 0.0000000000000000000, 0.0000000000000000000 ) ) ;
#246 = DIRECTION ( 'NONE',  ( -1.000000000000000000, -0.0000000000000000000, -0.0000000000000000000 ) ) ;
#247 = EDGE_LOOP ( 'NONE', ( #353, #24, #217, #243 ) ) ;
#248 = DIRECTION ( 'NONE',  ( 0.0000000000000000000, 0.0000000000000000000, -1.000000000000000000 ) ) ;
#249 = DIRECTION ( 'NONE',  ( 1.000000000000000000, 0.0000000000000000000, 0.0000000000000000000 ) ) ;
#250 = CARTESIAN_POINT ( 'NONE',  ( 2.974999999999997868, 0.0000000000000000000, 2.625000000000000000 ) ) ;
#251 = COLOUR_RGB ( '',0.8666666666666666963, 0.9098039215686274384, 1.000000000000000000 ) ;
#252 = ADVANCED_FACE ( 'NONE', ( #300 ), #166, .F. ) ;
#253 = CARTESIAN_POINT ( 'NONE',  ( -3.174999999999999822, 6.062001655779397525E-16, 4.899999999999999467 ) ) ;
#254 = CYLINDRICAL_SURFACE ( 'NONE', #102, 2.625000000000000000 ) ;
#255 = EDGE_CURVE ( 'NONE', #149, #25, #148, .T. ) ;
#256 =( LENGTH_UNIT ( ) NAMED_UNIT ( * ) SI_UNIT ( .MILLI., .METRE. ) );
#257 = ORIENTED_EDGE ( 'NONE', *, *, #255, .T. ) ;
#258 = ORIENTED_EDGE ( 'NONE', *, *, #310, .F. ) ;
#259 = AXIS2_PLACEMENT_3D ( 'NONE', #55, #141, #91 ) ;
#260 = CIRCLE ( 'NONE', #259, 4.999999999999999112 ) ;
#261 = ORIENTED_EDGE ( 'NONE', *, *, #314, .F. ) ;
#262 =( LENGTH_UNIT ( ) NAMED_UNIT ( * ) SI_UNIT ( .MILLI., .METRE. ) );
#263 = ORIENTED_EDGE ( 'NONE', *, *, #100, .F. ) ;
#264 = CARTESIAN_POINT ( 'NONE',  ( 3.174999999999999822, 0.0000000000000000000, 0.0000000000000000000 ) ) ;
#265 = ORIENTED_EDGE ( 'NONE', *, *, #54, .F. ) ;
#266 =( NAMED_UNIT ( * ) SI_UNIT ( $, .STERADIAN. ) SOLID_ANGLE_UNIT ( ) );
#267 = FACE_OUTER_BOUND ( 'NONE', #210, .T. ) ;
#268 = CARTESIAN_POINT ( 'NONE',  ( -3.074999999999999734, 0.0000000000000000000, 4.999999999999999112 ) ) ;
#269 = ORIENTED_EDGE ( 'NONE', *, *, #364, .T. ) ;
#270 = DIRECTION ( 'NONE',  ( -1.000000000000000000, -0.0000000000000000000, -0.0000000000000000000 ) ) ;
#271 = LINE ( 'NONE', #27, #176 ) ;
#272 = VERTEX_POINT ( 'NONE', #304 ) ;
#273 = CARTESIAN_POINT ( 'NONE',  ( 3.174999999999999822, 0.0000000000000000000, 0.0000000000000000000 ) ) ;
#274 = CARTESIAN_POINT ( 'NONE',  ( 3.174999999999999822, 0.0000000000000000000, 4.899999999999997691 ) ) ;
#275 = ORIENTED_EDGE ( 'NONE', *, *, #54, .T. ) ;
#276 = DIRECTION ( 'NONE',  ( 0.0000000000000000000, 0.0000000000000000000, -1.000000000000000000 ) ) ;
#277 = AXIS2_PLACEMENT_3D ( 'NONE', #79, #246, #133 ) ;
#278 = CONICAL_SURFACE ( 'NONE', #284, 2.625000000000000000, 0.7853981633974548293 ) ;
#279 = DIRECTION ( 'NONE',  ( -1.000000000000000000, -0.0000000000000000000, -0.0000000000000000000 ) ) ;
#280 = DIRECTION ( 'NONE',  ( 0.0000000000000000000, 0.0000000000000000000, -1.000000000000000000 ) ) ;
#281 = PRODUCT_DEFINITION ( 'UNKNOWN', '', #338, #48 ) ;
#282 = VERTEX_POINT ( 'NONE', #253 ) ;
#283 = AXIS2_PLACEMENT_3D ( 'NONE', #223, #93, #67 ) ;
#284 = AXIS2_PLACEMENT_3D ( 'NONE', #29, #137, #248 ) ;
#285 = CARTESIAN_POINT ( 'NONE',  ( -3.074999999999999734, 6.123233995736765296E-16, 4.999999999999999112 ) ) ;
#286 = EDGE_CURVE ( 'NONE', #272, #345, #65, .T. ) ;
#287 = AXIS2_PLACEMENT_3D ( 'NONE', #352, #361, #45 ) ;
#288 = CARTESIAN_POINT ( 'NONE',  ( -3.174999999999999822, 0.0000000000000000000, 0.0000000000000000000 ) ) ;
#289 = DIRECTION ( 'NONE',  ( 0.0000000000000000000, 0.0000000000000000000, -1.000000000000000000 ) ) ;
#290 = UNCERTAINTY_MEASURE_WITH_UNIT (LENGTH_MEASURE( 1.000000000000000082E-05 ), #262, 'distance_accuracy_value', 'NONE');
#291 = CARTESIAN_POINT ( 'NONE',  ( 2.974999999999997868, 0.0000000000000000000, 0.0000000000000000000 ) ) ;
#292 = ORIENTED_EDGE ( 'NONE', *, *, #87, .F. ) ;
#293 = DIRECTION ( 'NONE',  ( 1.000000000000000000, 0.0000000000000000000, 0.0000000000000000000 ) ) ;
#294 = CARTESIAN_POINT ( 'NONE',  ( 3.074999999999998845, 0.0000000000000000000, 4.999999999999999112 ) ) ;
#295 = CARTESIAN_POINT ( 'NONE',  ( 2.974999999999997868, 3.214697847761802076E-16, 2.625000000000000000 ) ) ;
#296 = AXIS2_PLACEMENT_3D ( 'NONE', #184, #293, #31 ) ;
#297 = ORIENTED_EDGE ( 'NONE', *, *, #32, .F. ) ;
#298 = DIRECTION ( 'NONE',  ( -1.000000000000000000, 0.0000000000000000000, 0.0000000000000000000 ) ) ;
#299 = DIRECTION ( 'NONE',  ( 0.0000000000000000000, 0.0000000000000000000, 1.000000000000000000 ) ) ;
#300 = FACE_OUTER_BOUND ( 'NONE', #247, .T. ) ;
#301 = EDGE_CURVE ( 'NONE', #236, #97, #233, .T. ) ;
#302 = ORIENTED_EDGE ( 'NONE', *, *, #344, .T. ) ;
#303 = CARTESIAN_POINT ( 'NONE',  ( 3.174999999999999822, 0.0000000000000000000, 0.0000000000000000000 ) ) ;
#304 = CARTESIAN_POINT ( 'NONE',  ( 3.074999999999998845, 6.123233995736765296E-16, -4.999999999999999112 ) ) ;
#305 = EDGE_CURVE ( 'NONE', #39, #207, #150, .T. ) ;
#306 = AXIS2_PLACEMENT_3D ( 'NONE', #340, #138, #170 ) ;
#307 = CARTESIAN_POINT ( 'NONE',  ( 3.174999999999999822, 0.0000000000000000000, 0.0000000000000000000 ) ) ;
#308 = AXIS2_PLACEMENT_3D ( 'NONE', #128, #154, #350 ) ;
#309 = MANIFOLD_SOLID_BREP ( 'Ôàñêà2', #10 ) ;
#310 = EDGE_CURVE ( 'NONE', #282, #28, #151, .T. ) ;
#311 = EDGE_LOOP ( 'NONE', ( #328, #99 ) ) ;
#312 = FILL_AREA_STYLE_COLOUR ( '', #171 ) ;
#313 = VECTOR ( 'NONE', #158, 1000.000000000000114 ) ;
#314 = EDGE_CURVE ( 'NONE', #77, #345, #35, .T. ) ;
#315 = SURFACE_SIDE_STYLE ('',( #73 ) ) ;
#316 = DIRECTION ( 'NONE',  ( 0.0000000000000000000, 0.0000000000000000000, -1.000000000000000000 ) ) ;
#317 = ADVANCED_BREP_SHAPE_REPRESENTATION ( 'A202 -ø¸ªðý¡øþýýð  òªºûúð 5¿1 4', ( #309, #202 ), #96 ) ;
#318 = EDGE_LOOP ( 'NONE', ( #198, #231 ) ) ;
#319 = CARTESIAN_POINT ( 'NONE',  ( -3.174999999999999822, 0.0000000000000000000, 0.0000000000000000000 ) ) ;
#320 = CARTESIAN_POINT ( 'NONE',  ( 2.974999999999997868, 3.214697847761802076E-16, -2.625000000000000000 ) ) ;
#321 = DIRECTION ( 'NONE',  ( 1.000000000000000000, 0.0000000000000000000, 0.0000000000000000000 ) ) ;
#322 = CONICAL_SURFACE ( 'NONE', #168, 2.625000000000000000, 0.7853981633974548293 ) ;
#323 = DIRECTION ( 'NONE',  ( -1.000000000000000000, 0.0000000000000000000, 0.0000000000000000000 ) ) ;
#324 = PRESENTATION_LAYER_ASSIGNMENT (  '', '', ( #109 ) ) ;
#325 = FACE_OUTER_BOUND ( 'NONE', #69, .T. ) ;
#326 = UNCERTAINTY_MEASURE_WITH_UNIT (LENGTH_MEASURE( 1.000000000000000082E-05 ), #348, 'distance_accuracy_value', 'NONE');
#327 = DIRECTION ( 'NONE',  ( 1.000000000000000000, 0.0000000000000000000, 0.0000000000000000000 ) ) ;
#328 = ORIENTED_EDGE ( 'NONE', *, *, #87, .T. ) ;
#329 = CARTESIAN_POINT ( 'NONE',  ( 3.174999999999999822, 6.062001655779396539E-16, -4.899999999999997691 ) ) ;
#330 = CARTESIAN_POINT ( 'NONE',  ( 3.174999999999999822, 6.000769315822028768E-16, -4.899999999999997691 ) ) ;
#331 = EDGE_LOOP ( 'NONE', ( #219, #360, #165, #263 ) ) ;
#332 = CARTESIAN_POINT ( 'NONE',  ( 3.174999999999999822, 0.0000000000000000000, 4.899999999999997691 ) ) ;
#333 = EDGE_CURVE ( 'NONE', #207, #70, #98, .T. ) ;
#334 = AXIS2_PLACEMENT_3D ( 'NONE', #319, #8, #177 ) ;
#335 = CARTESIAN_POINT ( 'NONE',  ( -3.074999999999999734, 0.0000000000000000000, 0.0000000000000000000 ) ) ;
#336 = SURFACE_SIDE_STYLE ('',( #342 ) ) ;
#337 = DIRECTION ( 'NONE',  ( 0.0000000000000000000, 0.0000000000000000000, -1.000000000000000000 ) ) ;
#338 = PRODUCT_DEFINITION_FORMATION_WITH_SPECIFIED_SOURCE ( 'ANY', '', #18, .NOT_KNOWN. ) ;
#339 = FACE_OUTER_BOUND ( 'NONE', #189, .T. ) ;
#340 = CARTESIAN_POINT ( 'NONE',  ( -3.174999999999999822, 0.0000000000000000000, 0.0000000000000000000 ) ) ;
#341 = CIRCLE ( 'NONE', #119, 4.999999999999999112 ) ;
#342 = SURFACE_STYLE_FILL_AREA ( #118 ) ;
#343 = ORIENTED_EDGE ( 'NONE', *, *, #142, .T. ) ;
#344 = EDGE_CURVE ( 'NONE', #97, #236, #195, .T. ) ;
#345 = VERTEX_POINT ( 'NONE', #72 ) ;
#346 = AXIS2_PLACEMENT_3D ( 'NONE', #303, #298, #190 ) ;
#347 = ADVANCED_FACE ( 'NONE', ( #82 ), #200, .T. ) ;
#348 =( LENGTH_UNIT ( ) NAMED_UNIT ( * ) SI_UNIT ( .MILLI., .METRE. ) );
#349 = AXIS2_PLACEMENT_3D ( 'NONE', #21, #355, #57 ) ;
#350 = DIRECTION ( 'NONE',  ( 0.0000000000000000000, 0.0000000000000000000, -1.000000000000000000 ) ) ;
#351 = ADVANCED_FACE ( 'NONE', ( #101, #43 ), #44, .F. ) ;
#352 = CARTESIAN_POINT ( 'NONE',  ( -3.074999999999999734, 0.0000000000000000000, 0.0000000000000000000 ) ) ;
#353 = ORIENTED_EDGE ( 'NONE', *, *, #142, .F. ) ;
#354 = APPLICATION_PROTOCOL_DEFINITION ( 'draft international standard', 'automotive_design', 1998, #356 ) ;
#355 = DIRECTION ( 'NONE',  ( -1.000000000000000000, -0.0000000000000000000, -0.0000000000000000000 ) ) ;
#356 = APPLICATION_CONTEXT ( 'automotive_design' ) ;
#357 = CONICAL_SURFACE ( 'NONE', #346, 4.899999999999997691, 0.7853981633974482790 ) ;
#358 = DIRECTION ( 'NONE',  ( -1.000000000000000000, -0.0000000000000000000, -0.0000000000000000000 ) ) ;
#359 = ORIENTED_EDGE ( 'NONE', *, *, #310, .T. ) ;
#360 = ORIENTED_EDGE ( 'NONE', *, *, #146, .T. ) ;
#361 = DIRECTION ( 'NONE',  ( 1.000000000000000000, -0.0000000000000000000, -0.0000000000000000000 ) ) ;
#362 = LINE ( 'NONE', #244, #229 ) ;
#363 = APPLICATION_PROTOCOL_DEFINITION ( 'draft international standard', 'automotive_design', 1998, #11 ) ;
#364 = EDGE_CURVE ( 'NONE', #25, #149, #41, .T. ) ;
ENDSEC;
END-ISO-10303-21;
