ISO-10303-21;
HEADER;
FILE_DESCRIPTION (( 'STEP AP203' ),
    '1' );
FILE_NAME ('RS10X Ïðóòîê àëþìèíèåâûé, êâàäðàò 10x10 (Áåç ïîêðûòèÿ).step',
    '2025-12-15T12:25:35',
    ( '' ),
    ( '' ),
    'SwSTEP 2.0',
    'SolidWorks 2026',
    '' );
FILE_SCHEMA (( 'CONFIG_CONTROL_DESIGN' ));
ENDSEC;

DATA;
#1 = CARTESIAN_POINT ( 'NONE',  ( -5.000000000000000000, -5.000000000000000000, 0.000000000000000000 ) ) ;
#2 = CALENDAR_DATE ( 2025, 15, 12 ) ;
#3 = PERSON_AND_ORGANIZATION ( #30, #94 ) ;
#4 = DATE_AND_TIME ( #2, #67 ) ;
#5 =( LENGTH_UNIT ( ) NAMED_UNIT ( * ) SI_UNIT ( .MILLI., .METRE. ) );
#6 = CC_DESIGN_PERSON_AND_ORGANIZATION_ASSIGNMENT ( #120, #171, ( #281 ) ) ;
#7 = PERSON_AND_ORGANIZATION_ROLE ( 'classification_officer' ) ;
#8 = EDGE_LOOP ( 'NONE', ( #236, #154, #64, #268 ) ) ;
#9 = APPROVAL_DATE_TIME ( #95, #62 ) ;
#10 = PERSON ( 'NAUO-PER1', 'UNSPECIFIED', 'UNSPECIFIED', ('UNSPECIFIED'), ('UNSPECIFIED'), ('UNSPECIFIED') ) ;
#11 = ORIENTED_EDGE ( 'NONE', *, *, #21, .T. ) ;
#12 = CALENDAR_DATE ( 2025, 15, 12 ) ;
#13 = VECTOR ( 'NONE', #15, 1000.000000000000000 ) ;
#14 = ORIENTED_EDGE ( 'NONE', *, *, #335, .F. ) ;
#15 = DIRECTION ( 'NONE',  ( -0.000000000000000000, -0.000000000000000000, -1.000000000000000000 ) ) ;
#16 = VECTOR ( 'NONE', #318, 1000.000000000000000 ) ;
#17 = CC_DESIGN_SECURITY_CLASSIFICATION ( #281, ( #32 ) ) ;
#18 = PERSON_AND_ORGANIZATION_ROLE ( 'design_supplier' ) ;
#19 = CARTESIAN_POINT ( 'NONE',  ( -5.000000000000000000, -5.000000000000000000, 0.000000000000000000 ) ) ;
#20 = PERSON_AND_ORGANIZATION_ROLE ( 'design_owner' ) ;
#21 = EDGE_CURVE ( 'NONE', #39, #261, #106, .T. ) ;
#22 = LINE ( 'NONE', #326, #173 ) ;
#23 = APPROVAL ( #200, 'UNSPECIFIED' ) ;
#24 = SHAPE_DEFINITION_REPRESENTATION ( #269, #340 ) ;
#25 = CARTESIAN_POINT ( 'NONE',  ( -5.000000000000000000, 5.000000000000000000, 1000.000000000000000 ) ) ;
#26 = AXIS2_PLACEMENT_3D ( 'NONE', #164, #196, #51 ) ;
#27 = LOCAL_TIME ( 15, 25, 35.00000000000000000, #287 ) ;
#28 = CARTESIAN_POINT ( 'NONE',  ( -5.000000000000000000, 5.000000000000000000, 1000.000000000000000 ) ) ;
#29 = CC_DESIGN_PERSON_AND_ORGANIZATION_ASSIGNMENT ( #54, #229, ( #257 ) ) ;
#30 = PERSON ( 'UNSPECIFIED', 'UNSPECIFIED', 'UNSPECIFIED', ('UNSPECIFIED'), ('UNSPECIFIED'), ('UNSPECIFIED') ) ;
#31 = APPLICATION_PROTOCOL_DEFINITION ( 'international standard', 'config_control_design', 1994, #105 ) ;
#32 = PRODUCT_DEFINITION_FORMATION_WITH_SPECIFIED_SOURCE ( 'ANY', '', #68, .NOT_KNOWN. ) ;
#33 = APPROVAL_DATE_TIME ( #328, #23 ) ;
#34 = VECTOR ( 'NONE', #184, 1000.000000000000000 ) ;
#35 = EDGE_LOOP ( 'NONE', ( #323, #289, #233, #348 ) ) ;
#36 = AXIS2_PLACEMENT_3D ( 'NONE', #66, #141, #176 ) ;
#37 = APPROVAL_DATE_TIME ( #4, #177 ) ;
#38 = PRODUCT_DEFINITION_SHAPE ( 'NONE', 'NONE',  #305 ) ;
#39 = VERTEX_POINT ( 'NONE', #69 ) ;
#40 = CALENDAR_DATE ( 2025, 15, 12 ) ;
#41 = VECTOR ( 'NONE', #353, 1000.000000000000000 ) ;
#42 = VERTEX_POINT ( 'NONE', #346 ) ;
#43 = CC_DESIGN_PERSON_AND_ORGANIZATION_ASSIGNMENT ( #123, #151, ( #53 ) ) ;
#44 = DIRECTION ( 'NONE',  ( 0.000000000000000000, 0.000000000000000000, -1.000000000000000000 ) ) ;
#45 = DATE_AND_TIME ( #142, #56 ) ;
#46 = MANIFOLD_SOLID_BREP ( '\X2\0411043e0431044b0448043a0430\X0\-\X2\0412044b0442044f043d04430442044c\X0\1', #113 ) ;
#47 = CARTESIAN_POINT ( 'NONE',  ( 0.000000000000000000, 0.000000000000000000, 1000.000000000000000 ) ) ;
#48 = CALENDAR_DATE ( 2025, 15, 12 ) ;
#49 = DIRECTION ( 'NONE',  ( -1.000000000000000000, 0.000000000000000000, -0.000000000000000000 ) ) ;
#50 = SECURITY_CLASSIFICATION_LEVEL ( 'unclassified' ) ;
#51 = DIRECTION ( 'NONE',  ( 0.000000000000000000, 0.000000000000000000, 1.000000000000000000 ) ) ;
#52 = DIRECTION ( 'NONE',  ( -0.000000000000000000, -0.000000000000000000, -1.000000000000000000 ) ) ;
#53 = PRODUCT_DEFINITION_FORMATION_WITH_SPECIFIED_SOURCE ( 'ANY', '', #208, .NOT_KNOWN. ) ;
#54 = PERSON_AND_ORGANIZATION ( #30, #94 ) ;
#55 = APPLICATION_PROTOCOL_DEFINITION ( 'international standard', 'config_control_design', 1994, #332 ) ;
#56 = LOCAL_TIME ( 15, 25, 35.00000000000000000, #80 ) ;
#57 = APPROVAL_PERSON_ORGANIZATION ( #234, #324, #265 ) ;
#58 = SECURITY_CLASSIFICATION_LEVEL ( 'unclassified' ) ;
#59 = CC_DESIGN_DATE_AND_TIME_ASSIGNMENT ( #256, #296, ( #257 ) ) ;
#60 =( NAMED_UNIT ( * ) SI_UNIT ( $, .STERADIAN. ) SOLID_ANGLE_UNIT ( ) );
#61 = DATE_TIME_ROLE ( 'classification_date' ) ;
#62 = APPROVAL ( #291, 'UNSPECIFIED' ) ;
#63 = DIRECTION ( 'NONE',  ( 1.000000000000000000, 0.000000000000000000, 0.000000000000000000 ) ) ;
#64 = ORIENTED_EDGE ( 'NONE', *, *, #235, .T. ) ;
#65 = DATE_AND_TIME ( #12, #274 ) ;
#66 = CARTESIAN_POINT ( 'NONE',  ( 0.000000000000000000, 0.000000000000000000, 0.000000000000000000 ) ) ;
#67 = LOCAL_TIME ( 15, 25, 35.00000000000000000, #254 ) ;
#68 = PRODUCT ( 'RS10X \X2\041f044004430442043e043a\X0\ \X2\0430043b044e043c0438043d043804350432044b0439\X0\, \X2\043a043204300434044004300442\X0\ 10x10 (\X2\041104350437\X0\ \X2\043f043e043a0440044b04420438044f\X0\)', 'RS10X \X2\041f044004430442043e043a\X0\ \X2\0430043b044e043c0438043d043804350432044b0439\X0\, \X2\043a043204300434044004300442\X0\ 10x10 (\X2\041104350437\X0\ \X2\043f043e043a0440044b04420438044f\X0\)', '', ( #344 ) ) ;
#69 = CARTESIAN_POINT ( 'NONE',  ( 5.000000000000000000, 5.000000000000000000, 1000.000000000000000 ) ) ;
#70 = LOCAL_TIME ( 15, 25, 35.00000000000000000, #354 ) ;
#71 = DATE_AND_TIME ( #179, #300 ) ;
#72 = EDGE_CURVE ( 'NONE', #42, #261, #101, .T. ) ;
#73 = CARTESIAN_POINT ( 'NONE',  ( 5.000000000000000000, -5.000000000000000000, 0.000000000000000000 ) ) ;
#74 = COORDINATED_UNIVERSAL_TIME_OFFSET ( 3, 0, .AHEAD. ) ;
#75 = ORIENTED_EDGE ( 'NONE', *, *, #148, .T. ) ;
#76 = VERTEX_POINT ( 'NONE', #290 ) ;
#77 = APPROVAL ( #136, 'UNSPECIFIED' ) ;
#78 = LINE ( 'NONE', #115, #359 ) ;
#79 = CC_DESIGN_DATE_AND_TIME_ASSIGNMENT ( #203, #61, ( #193 ) ) ;
#80 = COORDINATED_UNIVERSAL_TIME_OFFSET ( 3, 0, .AHEAD. ) ;
#81 = CARTESIAN_POINT ( 'NONE',  ( -5.000000000000000000, 5.000000000000000000, 1000.000000000000000 ) ) ;
#82 = PERSON_AND_ORGANIZATION ( #30, #94 ) ;
#83 = CARTESIAN_POINT ( 'NONE',  ( 5.000000000000000000, -5.000000000000000000, 1000.000000000000000 ) ) ;
#84 = ORGANIZATION ( 'NAUO-ORG1', 'UNSPECIFIED', 'UNSPECIFIED' ) ;
#85 = PERSON_AND_ORGANIZATION_ROLE ( 'creator' ) ;
#86 = FACE_OUTER_BOUND ( 'NONE', #35, .T. ) ;
#87 = CARTESIAN_POINT ( 'NONE',  ( 5.000000000000000000, 5.000000000000000000, 0.000000000000000000 ) ) ;
#88 = CC_DESIGN_DATE_AND_TIME_ASSIGNMENT ( #215, #122, ( #305 ) ) ;
#89 = AXIS2_PLACEMENT_3D ( 'NONE', #250, #333, #116 ) ;
#90 = CC_DESIGN_APPROVAL ( #324, ( #193 ) ) ;
#91 = DESIGN_CONTEXT ( 'detailed design', #306, 'design' ) ;
#92 = DATE_AND_TIME ( #275, #124 ) ;
#93 = MECHANICAL_CONTEXT ( 'NONE', #332, 'mechanical' ) ;
#94 = ORGANIZATION ( 'UNSPECIFIED', 'UNSPECIFIED', '' ) ;
#95 = DATE_AND_TIME ( #40, #102 ) ;
#96 = CARTESIAN_POINT ( 'NONE',  ( 0.000000000000000000, 0.000000000000000000, 0.000000000000000000 ) ) ;
#97 = APPROVAL ( #165, 'UNSPECIFIED' ) ;
#98 = ORIENTED_EDGE ( 'NONE', *, *, #148, .F. ) ;
#99 = CONTEXT_DEPENDENT_SHAPE_REPRESENTATION ( #314, #146 ) ;
#100 = CC_DESIGN_APPROVAL ( #77, ( #32 ) ) ;
#101 = LINE ( 'NONE', #73, #34 ) ;
#102 = LOCAL_TIME ( 15, 25, 35.00000000000000000, #262 ) ;
#103 = VERTEX_POINT ( 'NONE', #1 ) ;
#104 = VERTEX_POINT ( 'NONE', #109 ) ;
#105 = APPLICATION_CONTEXT ( 'configuration controlled 3d designs of mechanical parts and assemblies' ) ;
#106 = LINE ( 'NONE', #178, #16 ) ;
#107 = DIRECTION ( 'NONE',  ( 0.000000000000000000, -1.000000000000000000, 0.000000000000000000 ) ) ;
#108 = APPLICATION_PROTOCOL_DEFINITION ( 'international standard', 'config_control_design', 1994, #306 ) ;
#109 = CARTESIAN_POINT ( 'NONE',  ( -5.000000000000000000, 5.000000000000000000, 1000.000000000000000 ) ) ;
#110 = EDGE_CURVE ( 'NONE', #104, #240, #211, .T. ) ;
#111 = PERSON_AND_ORGANIZATION ( #30, #94 ) ;
#112 = FACE_OUTER_BOUND ( 'NONE', #127, .T. ) ;
#113 = CLOSED_SHELL ( 'NONE', ( #352, #126, #358, #252, #153, #245 ) ) ;
#114 = CC_DESIGN_APPROVAL ( #166, ( #257 ) ) ;
#115 = CARTESIAN_POINT ( 'NONE',  ( -5.000000000000000000, -5.000000000000000000, 1000.000000000000000 ) ) ;
#116 = DIRECTION ( 'NONE',  ( 0.000000000000000000, 0.000000000000000000, -1.000000000000000000 ) ) ;
#117 = CC_DESIGN_PERSON_AND_ORGANIZATION_ASSIGNMENT ( #206, #185, ( #53 ) ) ;
#118 = DIRECTION ( 'NONE',  ( 0.000000000000000000, 0.000000000000000000, 1.000000000000000000 ) ) ;
#119 = PERSON_AND_ORGANIZATION ( #30, #94 ) ;
#120 = PERSON_AND_ORGANIZATION ( #30, #94 ) ;
#121 = CC_DESIGN_PERSON_AND_ORGANIZATION_ASSIGNMENT ( #3, #85, ( #32 ) ) ;
#122 = DATE_TIME_ROLE ( 'creation_date' ) ;
#123 = PERSON_AND_ORGANIZATION ( #30, #94 ) ;
#124 = LOCAL_TIME ( 15, 25, 35.00000000000000000, #309 ) ;
#125 = APPLICATION_PROTOCOL_DEFINITION ( 'international standard', 'config_control_design', 1994, #201 ) ;
#126 = ADVANCED_FACE ( 'NONE', ( #112 ), #357, .F. ) ;
#127 = EDGE_LOOP ( 'NONE', ( #292, #294, #157, #11 ) ) ;
#128 = CALENDAR_DATE ( 2025, 15, 12 ) ;
#129 = AXIS2_PLACEMENT_3D ( 'NONE', #297, #161, #137 ) ;
#130 = CC_DESIGN_PERSON_AND_ORGANIZATION_ASSIGNMENT ( #234, #182, ( #193 ) ) ;
#131 = ORIENTED_EDGE ( 'NONE', *, *, #284, .F. ) ;
#132 = PLANE ( 'NONE',  #143 ) ;
#133 = APPROVAL_ROLE ( '' ) ;
#134 = FACE_OUTER_BOUND ( 'NONE', #264, .T. ) ;
#135 = CC_DESIGN_DATE_AND_TIME_ASSIGNMENT ( #65, #312, ( #174 ) ) ;
#136 = APPROVAL_STATUS ( 'not_yet_approved' ) ;
#137 = DIRECTION ( 'NONE',  ( 0.000000000000000000, -0.000000000000000000, 1.000000000000000000 ) ) ;
#138 = CALENDAR_DATE ( 2025, 15, 12 ) ;
#139 = LINE ( 'NONE', #243, #13 ) ;
#140 = DIRECTION ( 'NONE',  ( -0.000000000000000000, -0.000000000000000000, -1.000000000000000000 ) ) ;
#141 = DIRECTION ( 'NONE',  ( 0.000000000000000000, 0.000000000000000000, 1.000000000000000000 ) ) ;
#142 = CALENDAR_DATE ( 2025, 15, 12 ) ;
#143 = AXIS2_PLACEMENT_3D ( 'NONE', #47, #44, #49 ) ;
#144 = VECTOR ( 'NONE', #329, 1000.000000000000000 ) ;
#145 = COORDINATED_UNIVERSAL_TIME_OFFSET ( 3, 0, .AHEAD. ) ;
#146 = PRODUCT_DEFINITION_SHAPE ( 'NONE', 'NONE',  #361 ) ;
#147 = APPROVAL_DATE_TIME ( #71, #324 ) ;
#148 = EDGE_CURVE ( 'NONE', #240, #103, #276, .T. ) ;
#149 =( NAMED_UNIT ( * ) SI_UNIT ( $, .STERADIAN. ) SOLID_ANGLE_UNIT ( ) );
#150 = EDGE_LOOP ( 'NONE', ( #267, #131, #322, #347 ) ) ;
#151 = PERSON_AND_ORGANIZATION_ROLE ( 'design_supplier' ) ;
#152 = PERSON_AND_ORGANIZATION ( #30, #94 ) ;
#153 = ADVANCED_FACE ( 'NONE', ( #197 ), #132, .F. ) ;
#154 = ORIENTED_EDGE ( 'NONE', *, *, #209, .T. ) ;
#155 = ITEM_DEFINED_TRANSFORMATION ( 'NONE', 'NONE', #207,  #336 ) ;
#156 = APPROVAL_PERSON_ORGANIZATION ( #227, #97, #247 ) ;
#157 = ORIENTED_EDGE ( 'NONE', *, *, #209, .F. ) ;
#158 = ORIENTED_EDGE ( 'NONE', *, *, #72, .F. ) ;
#159 = DIRECTION ( 'NONE',  ( -0.000000000000000000, -1.000000000000000000, -0.000000000000000000 ) ) ;
#160 = APPROVAL_DATE_TIME ( #45, #166 ) ;
#161 = DIRECTION ( 'NONE',  ( 0.000000000000000000, 1.000000000000000000, 0.000000000000000000 ) ) ;
#162 = CC_DESIGN_SECURITY_CLASSIFICATION ( #193, ( #361 ) ) ;
#163 = COORDINATED_UNIVERSAL_TIME_OFFSET ( 3, 0, .AHEAD. ) ;
#164 = CARTESIAN_POINT ( 'NONE',  ( 5.000000000000000000, -5.000000000000000000, 1000.000000000000000 ) ) ;
#165 = APPROVAL_STATUS ( 'not_yet_approved' ) ;
#166 = APPROVAL ( #199, 'UNSPECIFIED' ) ;
#167 = FACE_OUTER_BOUND ( 'NONE', #205, .T. ) ;
#168 = LINE ( 'NONE', #81, #202 ) ;
#169 = CC_DESIGN_APPROVAL ( #23, ( #305 ) ) ;
#170 = CC_DESIGN_PERSON_AND_ORGANIZATION_ASSIGNMENT ( #195, #18, ( #32 ) ) ;
#171 = PERSON_AND_ORGANIZATION_ROLE ( 'classification_officer' ) ;
#172 = PERSON_AND_ORGANIZATION ( #30, #94 ) ;
#173 = VECTOR ( 'NONE', #212, 1000.000000000000000 ) ;
#174 = SECURITY_CLASSIFICATION ( '', '', #319 ) ;
#175 = APPROVAL_STATUS ( 'not_yet_approved' ) ;
#176 = DIRECTION ( 'NONE',  ( 1.000000000000000000, 0.000000000000000000, 0.000000000000000000 ) ) ;
#177 = APPROVAL ( #302, 'UNSPECIFIED' ) ;
#178 = CARTESIAN_POINT ( 'NONE',  ( 5.000000000000000000, 5.000000000000000000, 1000.000000000000000 ) ) ;
#179 = CALENDAR_DATE ( 2025, 15, 12 ) ;
#180 = CARTESIAN_POINT ( 'NONE',  ( 0.000000000000000000, 0.000000000000000000, 0.000000000000000000 ) ) ;
#181 =( GEOMETRIC_REPRESENTATION_CONTEXT ( 3 ) GLOBAL_UNCERTAINTY_ASSIGNED_CONTEXT ( ( #279 ) ) GLOBAL_UNIT_ASSIGNED_CONTEXT ( ( #5, #232, #60 ) ) REPRESENTATION_CONTEXT ( 'NONE', 'WORKASPACE' ) );
#182 = PERSON_AND_ORGANIZATION_ROLE ( 'classification_officer' ) ;
#183 = EDGE_CURVE ( 'NONE', #349, #39, #22, .T. ) ;
#184 = DIRECTION ( 'NONE',  ( 0.000000000000000000, 1.000000000000000000, 0.000000000000000000 ) ) ;
#185 = PERSON_AND_ORGANIZATION_ROLE ( 'creator' ) ;
#186 = APPROVAL_PERSON_ORGANIZATION ( #258, #177, #277 ) ;
#187 = CARTESIAN_POINT ( 'NONE',  ( -5.000000000000000000, -5.000000000000000000, 0.000000000000000000 ) ) ;
#188 = APPROVAL_ROLE ( '' ) ;
#189 = DIRECTION ( 'NONE',  ( 0.000000000000000000, 0.000000000000000000, -1.000000000000000000 ) ) ;
#190 = CALENDAR_DATE ( 2025, 15, 12 ) ;
#191 = PLANE ( 'NONE',  #26 ) ;
#192 =( GEOMETRIC_REPRESENTATION_CONTEXT ( 3 ) GLOBAL_UNCERTAINTY_ASSIGNED_CONTEXT ( ( #249 ) ) GLOBAL_UNIT_ASSIGNED_CONTEXT ( ( #220, #316, #149 ) ) REPRESENTATION_CONTEXT ( 'NONE', 'WORKASPACE' ) );
#193 = SECURITY_CLASSIFICATION ( '', '', #58 ) ;
#194 = EDGE_CURVE ( 'NONE', #76, #103, #139, .T. ) ;
#195 = PERSON_AND_ORGANIZATION ( #30, #94 ) ;
#196 = DIRECTION ( 'NONE',  ( -1.000000000000000000, 0.000000000000000000, 0.000000000000000000 ) ) ;
#197 = FACE_OUTER_BOUND ( 'NONE', #8, .T. ) ;
#198 = EDGE_CURVE ( 'NONE', #76, #349, #78, .T. ) ;
#199 = APPROVAL_STATUS ( 'not_yet_approved' ) ;
#200 = APPROVAL_STATUS ( 'not_yet_approved' ) ;
#201 = APPLICATION_CONTEXT ( 'configuration controlled 3d designs of mechanical parts and assemblies' ) ;
#202 = VECTOR ( 'NONE', #219, 1000.000000000000000 ) ;
#203 = DATE_AND_TIME ( #128, #27 ) ;
#204 = DIRECTION ( 'NONE',  ( 0.000000000000000000, 0.000000000000000000, 1.000000000000000000 ) ) ;
#205 = EDGE_LOOP ( 'NONE', ( #75, #345, #320, #238 ) ) ;
#206 = PERSON_AND_ORGANIZATION ( #30, #94 ) ;
#207 = AXIS2_PLACEMENT_3D ( 'NONE', #180, #118, #223 ) ;
#208 = PRODUCT ( 'RS10X \X2\041f044004430442043e043a\X0\ \X2\0430043b044e043c0438043d043804350432044b0439\X0\, \X2\043a043204300434044004300442\X0\ 10x10 (\X2\041104350437\X0\ \X2\043f043e043a0440044b04420438044f\X0\)_00', 'RS10X \X2\041f044004430442043e043a\X0\ \X2\0430043b044e043c0438043d043804350432044b0439\X0\, \X2\043a043204300434044004300442\X0\ 10x10 (\X2\041104350437\X0\ \X2\043f043e043a0440044b04420438044f\X0\)_00', '', ( #93 ) ) ;
#209 = EDGE_CURVE ( 'NONE', #39, #104, #168, .T. ) ;
#210 = VECTOR ( 'NONE', #159, 1000.000000000000000 ) ;
#211 = LINE ( 'NONE', #25, #225 ) ;
#212 = DIRECTION ( 'NONE',  ( 0.000000000000000000, 1.000000000000000000, 0.000000000000000000 ) ) ;
#213 = DATE_AND_TIME ( #356, #341 ) ;
#214 = CARTESIAN_POINT ( 'NONE',  ( -5.000000000000000000, 5.000000000000000000, 0.000000000000000000 ) ) ;
#215 = DATE_AND_TIME ( #138, #311 ) ;
#216 = CC_DESIGN_PERSON_AND_ORGANIZATION_ASSIGNMENT ( #119, #20, ( #208 ) ) ;
#217 = DIRECTION ( 'NONE',  ( 0.000000000000000000, -0.000000000000000000, -1.000000000000000000 ) ) ;
#218 = LOCAL_TIME ( 15, 25, 35.00000000000000000, #338 ) ;
#219 = DIRECTION ( 'NONE',  ( -1.000000000000000000, -0.000000000000000000, -0.000000000000000000 ) ) ;
#220 =( LENGTH_UNIT ( ) NAMED_UNIT ( * ) SI_UNIT ( .MILLI., .METRE. ) );
#221 = CC_DESIGN_DATE_AND_TIME_ASSIGNMENT ( #92, #228, ( #281 ) ) ;
#222 = EDGE_CURVE ( 'NONE', #103, #42, #304, .T. ) ;
#223 = DIRECTION ( 'NONE',  ( 1.000000000000000000, 0.000000000000000000, 0.000000000000000000 ) ) ;
#224 = DESIGN_CONTEXT ( 'detailed design', #105, 'design' ) ;
#225 = VECTOR ( 'NONE', #52, 1000.000000000000000 ) ;
#226 = AXIS2_PLACEMENT_3D ( 'NONE', #327, #189, #271 ) ;
#227 = PERSON_AND_ORGANIZATION ( #30, #94 ) ;
#228 = DATE_TIME_ROLE ( 'classification_date' ) ;
#229 = PERSON_AND_ORGANIZATION_ROLE ( 'creator' ) ;
#230 = SHAPE_REPRESENTATION ( 'RS10X \X2\041f044004430442043e043a\X0\ \X2\0430043b044e043c0438043d043804350432044b0439\X0\, \X2\043a043204300434044004300442\X0\ 10x10 (\X2\041104350437\X0\ \X2\043f043e043a0440044b04420438044f\X0\)_00', ( #336 ), #192 ) ;
#231 = COORDINATED_UNIVERSAL_TIME_OFFSET ( 3, 0, .AHEAD. ) ;
#232 =( NAMED_UNIT ( * ) PLANE_ANGLE_UNIT ( ) SI_UNIT ( $, .RADIAN. ) );
#233 = ORIENTED_EDGE ( 'NONE', *, *, #183, .F. ) ;
#234 = PERSON_AND_ORGANIZATION ( #10, #84 ) ;
#235 = EDGE_CURVE ( 'NONE', #104, #76, #360, .T. ) ;
#236 = ORIENTED_EDGE ( 'NONE', *, *, #183, .T. ) ;
#237 = CC_DESIGN_APPROVAL ( #177, ( #53 ) ) ;
#238 = ORIENTED_EDGE ( 'NONE', *, *, #110, .T. ) ;
#239 = ORIENTED_EDGE ( 'NONE', *, *, #222, .F. ) ;
#240 = VERTEX_POINT ( 'NONE', #303 ) ;
#241 = CC_DESIGN_PERSON_AND_ORGANIZATION_ASSIGNMENT ( #172, #285, ( #305 ) ) ;
#242 = CC_DESIGN_APPROVAL ( #97, ( #281 ) ) ;
#243 = CARTESIAN_POINT ( 'NONE',  ( -5.000000000000000000, -5.000000000000000000, 1000.000000000000000 ) ) ;
#244 = APPROVAL_DATE_TIME ( #283, #77 ) ;
#245 = ADVANCED_FACE ( 'NONE', ( #134 ), #251, .T. ) ;
#246 = LINE ( 'NONE', #273, #325 ) ;
#247 = APPROVAL_ROLE ( '' ) ;
#248 = FACE_OUTER_BOUND ( 'NONE', #150, .T. ) ;
#249 = UNCERTAINTY_MEASURE_WITH_UNIT (LENGTH_MEASURE( 1.000000000000000082E-05 ), #220, 'distance_accuracy_value', 'NONE');
#250 = CARTESIAN_POINT ( 'NONE',  ( -5.000000000000000000, -5.000000000000000000, 1000.000000000000000 ) ) ;
#251 = PLANE ( 'NONE',  #226 ) ;
#252 = ADVANCED_FACE ( 'NONE', ( #248 ), #301, .F. ) ;
#253 = SHAPE_REPRESENTATION_RELATIONSHIP ( 'NONE' , 'NONE' ,  #230, #270 ) ;
#254 = COORDINATED_UNIVERSAL_TIME_OFFSET ( 3, 0, .AHEAD. ) ;
#255 = AXIS2_PLACEMENT_3D ( 'NONE', #28, #107, #217 ) ;
#256 = DATE_AND_TIME ( #190, #218 ) ;
#257 = PRODUCT_DEFINITION ( 'UNKNOWN', '', #32, #224 ) ;
#258 = PERSON_AND_ORGANIZATION ( #30, #94 ) ;
#259 = APPROVAL_ROLE ( '' ) ;
#260 = CARTESIAN_POINT ( 'NONE',  ( 0.000000000000000000, 0.000000000000000000, 0.000000000000000000 ) ) ;
#261 = VERTEX_POINT ( 'NONE', #87 ) ;
#262 = COORDINATED_UNIVERSAL_TIME_OFFSET ( 3, 0, .AHEAD. ) ;
#263 = PERSON_AND_ORGANIZATION_ROLE ( 'design_owner' ) ;
#264 = EDGE_LOOP ( 'NONE', ( #158, #239, #98, #14 ) ) ;
#265 = APPROVAL_ROLE ( '' ) ;
#266 = AXIS2_PLACEMENT_3D ( 'NONE', #96, #204, #63 ) ;
#267 = ORIENTED_EDGE ( 'NONE', *, *, #222, .T. ) ;
#268 = ORIENTED_EDGE ( 'NONE', *, *, #198, .T. ) ;
#269 = PRODUCT_DEFINITION_SHAPE ( 'NONE', 'NONE',  #257 ) ;
#270 = ADVANCED_BREP_SHAPE_REPRESENTATION ( '', ( #46, #336 ), #192 ) ;
#271 = DIRECTION ( 'NONE',  ( -1.000000000000000000, 0.000000000000000000, -0.000000000000000000 ) ) ;
#272 = PERSON_AND_ORGANIZATION ( #30, #94 ) ;
#273 = CARTESIAN_POINT ( 'NONE',  ( 5.000000000000000000, -5.000000000000000000, 1000.000000000000000 ) ) ;
#274 = LOCAL_TIME ( 15, 25, 35.00000000000000000, #74 ) ;
#275 = CALENDAR_DATE ( 2025, 15, 12 ) ;
#276 = LINE ( 'NONE', #19, #350 ) ;
#277 = APPROVAL_ROLE ( '' ) ;
#278 = PLANE ( 'NONE',  #89 ) ;
#279 = UNCERTAINTY_MEASURE_WITH_UNIT (LENGTH_MEASURE( 1.000000000000000082E-05 ), #5, 'distance_accuracy_value', 'NONE');
#280 = DIRECTION ( 'NONE',  ( 1.000000000000000000, 0.000000000000000000, 0.000000000000000000 ) ) ;
#281 = SECURITY_CLASSIFICATION ( '', '', #50 ) ;
#282 = CC_DESIGN_APPROVAL ( #62, ( #174 ) ) ;
#283 = DATE_AND_TIME ( #48, #299 ) ;
#284 = EDGE_CURVE ( 'NONE', #349, #42, #246, .T. ) ;
#285 = PERSON_AND_ORGANIZATION_ROLE ( 'creator' ) ;
#286 = PRODUCT_RELATED_PRODUCT_CATEGORY ( 'detail', '', ( #68 ) ) ;
#287 = COORDINATED_UNIVERSAL_TIME_OFFSET ( 3, 0, .AHEAD. ) ;
#288 = CC_DESIGN_PERSON_AND_ORGANIZATION_ASSIGNMENT ( #152, #263, ( #68 ) ) ;
#289 = ORIENTED_EDGE ( 'NONE', *, *, #21, .F. ) ;
#290 = CARTESIAN_POINT ( 'NONE',  ( -5.000000000000000000, -5.000000000000000000, 1000.000000000000000 ) ) ;
#291 = APPROVAL_STATUS ( 'not_yet_approved' ) ;
#292 = ORIENTED_EDGE ( 'NONE', *, *, #335, .T. ) ;
#293 = APPROVAL_PERSON_ORGANIZATION ( #111, #23, #133 ) ;
#294 = ORIENTED_EDGE ( 'NONE', *, *, #110, .F. ) ;
#295 = CARTESIAN_POINT ( 'NONE',  ( -5.000000000000000000, -5.000000000000000000, 1000.000000000000000 ) ) ;
#296 = DATE_TIME_ROLE ( 'creation_date' ) ;
#297 = CARTESIAN_POINT ( 'NONE',  ( -5.000000000000000000, -5.000000000000000000, 1000.000000000000000 ) ) ;
#298 = COORDINATED_UNIVERSAL_TIME_OFFSET ( 3, 0, .AHEAD. ) ;
#299 = LOCAL_TIME ( 15, 25, 35.00000000000000000, #298 ) ;
#300 = LOCAL_TIME ( 15, 25, 35.00000000000000000, #231 ) ;
#301 = PLANE ( 'NONE',  #129 ) ;
#302 = APPROVAL_STATUS ( 'not_yet_approved' ) ;
#303 = CARTESIAN_POINT ( 'NONE',  ( -5.000000000000000000, 5.000000000000000000, 0.000000000000000000 ) ) ;
#304 = LINE ( 'NONE', #187, #41 ) ;
#305 = PRODUCT_DEFINITION ( 'UNKNOWN', '', #53, #91 ) ;
#306 = APPLICATION_CONTEXT ( 'configuration controlled 3d designs of mechanical parts and assemblies' ) ;
#307 = DIRECTION ( 'NONE',  ( 0.000000000000000000, 0.000000000000000000, 1.000000000000000000 ) ) ;
#308 = APPROVAL_PERSON_ORGANIZATION ( #272, #166, #330 ) ;
#309 = COORDINATED_UNIVERSAL_TIME_OFFSET ( 3, 0, .AHEAD. ) ;
#310 = CALENDAR_DATE ( 2025, 15, 12 ) ;
#311 = LOCAL_TIME ( 15, 25, 35.00000000000000000, #145 ) ;
#312 = DATE_TIME_ROLE ( 'classification_date' ) ;
#313 = CC_DESIGN_SECURITY_CLASSIFICATION ( #174, ( #53 ) ) ;
#314 =( REPRESENTATION_RELATIONSHIP ('NONE','NONE', #340, #230 ) REPRESENTATION_RELATIONSHIP_WITH_TRANSFORMATION ( #155 )SHAPE_REPRESENTATION_RELATIONSHIP( ) );
#315 = SHAPE_DEFINITION_REPRESENTATION ( #38, #230 ) ;
#316 =( NAMED_UNIT ( * ) PLANE_ANGLE_UNIT ( ) SI_UNIT ( $, .RADIAN. ) );
#317 = PRODUCT_RELATED_PRODUCT_CATEGORY ( 'detail', '', ( #208 ) ) ;
#318 = DIRECTION ( 'NONE',  ( -0.000000000000000000, -0.000000000000000000, -1.000000000000000000 ) ) ;
#319 = SECURITY_CLASSIFICATION_LEVEL ( 'unclassified' ) ;
#320 = ORIENTED_EDGE ( 'NONE', *, *, #235, .F. ) ;
#321 = PERSON_AND_ORGANIZATION ( #30, #94 ) ;
#322 = ORIENTED_EDGE ( 'NONE', *, *, #198, .F. ) ;
#323 = ORIENTED_EDGE ( 'NONE', *, *, #72, .T. ) ;
#324 = APPROVAL ( #175, 'UNKNOWN' ) ;
#325 = VECTOR ( 'NONE', #140, 1000.000000000000000 ) ;
#326 = CARTESIAN_POINT ( 'NONE',  ( 5.000000000000000000, -5.000000000000000000, 1000.000000000000000 ) ) ;
#327 = CARTESIAN_POINT ( 'NONE',  ( 0.000000000000000000, 0.000000000000000000, 0.000000000000000000 ) ) ;
#328 = DATE_AND_TIME ( #310, #70 ) ;
#329 = DIRECTION ( 'NONE',  ( -1.000000000000000000, -0.000000000000000000, -0.000000000000000000 ) ) ;
#330 = APPROVAL_ROLE ( '' ) ;
#331 = DIRECTION ( 'NONE',  ( -0.000000000000000000, -1.000000000000000000, -0.000000000000000000 ) ) ;
#332 = APPLICATION_CONTEXT ( 'configuration controlled 3d designs of mechanical parts and assemblies' ) ;
#333 = DIRECTION ( 'NONE',  ( 1.000000000000000000, 0.000000000000000000, 0.000000000000000000 ) ) ;
#334 = DIRECTION ( 'NONE',  ( 1.000000000000000000, 0.000000000000000000, 0.000000000000000000 ) ) ;
#335 = EDGE_CURVE ( 'NONE', #261, #240, #355, .T. ) ;
#336 = AXIS2_PLACEMENT_3D ( 'NONE', #260, #307, #334 ) ;
#337 = APPROVAL_PERSON_ORGANIZATION ( #321, #62, #259 ) ;
#338 = COORDINATED_UNIVERSAL_TIME_OFFSET ( 3, 0, .AHEAD. ) ;
#339 = APPROVAL_DATE_TIME ( #213, #97 ) ;
#340 = SHAPE_REPRESENTATION ( 'RS10X \X2\041f044004430442043e043a\X0\ \X2\0430043b044e043c0438043d043804350432044b0439\X0\, \X2\043a043204300434044004300442\X0\ 10x10 (\X2\041104350437\X0\ \X2\043f043e043a0440044b04420438044f\X0\)', ( #266, #207 ), #181 ) ;
#341 = LOCAL_TIME ( 15, 25, 35.00000000000000000, #163 ) ;
#342 = PERSON_AND_ORGANIZATION ( #30, #94 ) ;
#343 = CC_DESIGN_PERSON_AND_ORGANIZATION_ASSIGNMENT ( #342, #7, ( #174 ) ) ;
#344 = MECHANICAL_CONTEXT ( 'NONE', #201, 'mechanical' ) ;
#345 = ORIENTED_EDGE ( 'NONE', *, *, #194, .F. ) ;
#346 = CARTESIAN_POINT ( 'NONE',  ( 5.000000000000000000, -5.000000000000000000, 0.000000000000000000 ) ) ;
#347 = ORIENTED_EDGE ( 'NONE', *, *, #194, .T. ) ;
#348 = ORIENTED_EDGE ( 'NONE', *, *, #284, .T. ) ;
#349 = VERTEX_POINT ( 'NONE', #83 ) ;
#350 = VECTOR ( 'NONE', #331, 1000.000000000000000 ) ;
#351 = APPROVAL_PERSON_ORGANIZATION ( #82, #77, #188 ) ;
#352 = ADVANCED_FACE ( 'NONE', ( #86 ), #191, .F. ) ;
#353 = DIRECTION ( 'NONE',  ( 1.000000000000000000, 0.000000000000000000, 0.000000000000000000 ) ) ;
#354 = COORDINATED_UNIVERSAL_TIME_OFFSET ( 3, 0, .AHEAD. ) ;
#355 = LINE ( 'NONE', #214, #144 ) ;
#356 = CALENDAR_DATE ( 2025, 15, 12 ) ;
#357 = PLANE ( 'NONE',  #255 ) ;
#358 = ADVANCED_FACE ( 'NONE', ( #167 ), #278, .F. ) ;
#359 = VECTOR ( 'NONE', #280, 1000.000000000000000 ) ;
#360 = LINE ( 'NONE', #295, #210 ) ;
#361 = NEXT_ASSEMBLY_USAGE_OCCURRENCE ( 'NAUO1', ' ', ' ', #257, #305, $ ) ;
ENDSEC;
END-ISO-10303-21;
