ISO-10303-21;
HEADER;
FILE_DESCRIPTION (( 'STEP AP214' ),
    '1' );
FILE_NAME ('SNSD.30.51.33. Ñóõàðü ïàçîâûé ñ ïðóæèííîé ïëàñòèíîé M4, ïàç 10(B81).STEP',
    '2017-12-18T10:50:04',
    ( '' ),
    ( '' ),
    'SwSTEP 2.0',
    'SolidWorks 2017',
    '' );
FILE_SCHEMA (( 'AUTOMOTIVE_DESIGN' ));
ENDSEC;

DATA;
#1 = ORIENTED_EDGE ( 'NONE', *, *, #142, .F. ) ;
#2 = UNCERTAINTY_MEASURE_WITH_UNIT (LENGTH_MEASURE( 1.000000000000000100E-005 ), #69, 'distance_accuracy_value', 'NONE');
#3 = STYLED_ITEM ( 'NONE', ( #16 ), #216 ) ;
#4 = EDGE_LOOP ( 'NONE', ( #295, #192, #113, #18 ) ) ;
#5 = LINE ( 'NONE', #279, #139 ) ;
#6 = EDGE_CURVE ( 'NONE', #179, #59, #5, .T. ) ;
#7 = CARTESIAN_POINT ( 'NONE',  ( 0.0000000000000000000, -2.000000000000000000, 0.0000000000000000000 ) ) ;
#8 = CARTESIAN_POINT ( 'NONE',  ( -9.000000000000000000, 2.000000000000000000, -9.000000000000000000 ) ) ;
#9 =( NAMED_UNIT ( * ) SI_UNIT ( $, .STERADIAN. ) SOLID_ANGLE_UNIT ( ) );
#10 = CARTESIAN_POINT ( 'NONE',  ( 0.0000000000000000000, -2.000000000000000000, 0.0000000000000000000 ) ) ;
#11 = AXIS2_PLACEMENT_3D ( 'NONE', #231, #62, #252 ) ;
#12 = DIRECTION ( 'NONE',  ( -0.0000000000000000000, 1.000000000000000000, -0.0000000000000000000 ) ) ;
#13 = DIRECTION ( 'NONE',  ( 0.0000000000000000000, 0.0000000000000000000, 1.000000000000000000 ) ) ;
#14 = CARTESIAN_POINT ( 'NONE',  ( 8.999999999999998200, -2.000000000000000000, -8.999999999999998200 ) ) ;
#15 = PLANE ( 'NONE',  #54 ) ;
#16 = PRESENTATION_STYLE_ASSIGNMENT (( #40 ) ) ;
#17 = CARTESIAN_POINT ( 'NONE',  ( 0.0000000000000000000, 0.0000000000000000000, 0.0000000000000000000 ) ) ;
#18 = ORIENTED_EDGE ( 'NONE', *, *, #71, .T. ) ;
#19 = AXIS2_PLACEMENT_3D ( 'NONE', #307, #103, #291 ) ;
#20 = VERTEX_POINT ( 'NONE', #328 ) ;
#21 =( NAMED_UNIT ( * ) SI_UNIT ( $, .STERADIAN. ) SOLID_ANGLE_UNIT ( ) );
#22 = MANIFOLD_SOLID_BREP ( 'Âûðåç-Âûòÿíóòü1', #102 ) ;
#23 = SURFACE_SIDE_STYLE ('',( #131 ) ) ;
#24 = FACE_BOUND ( 'NONE', #132, .T. ) ;
#25 = ADVANCED_FACE ( 'NONE', ( #129, #333 ), #89, .F. ) ;
#26 = ITEM_DEFINED_TRANSFORMATION ( 'NONE', 'NONE', #148,  #335 ) ;
#27 = SURFACE_STYLE_FILL_AREA ( #229 ) ;
#28 = EDGE_CURVE ( 'NONE', #80, #59, #150, .T. ) ;
#29 = PRESENTATION_STYLE_ASSIGNMENT (( #173 ) ) ;
#30 = STYLED_ITEM ( 'NONE', ( #270 ), #75 ) ;
#31 = PRODUCT_RELATED_PRODUCT_CATEGORY ( 'part', '', ( #163 ) ) ;
#32 = ORIENTED_EDGE ( 'NONE', *, *, #94, .F. ) ;
#33 = CIRCLE ( 'NONE', #114, 1.600000000000000100 ) ;
#34 = FACE_OUTER_BOUND ( 'NONE', #4, .T. ) ;
#35 =( GEOMETRIC_REPRESENTATION_CONTEXT ( 3 ) GLOBAL_UNCERTAINTY_ASSIGNED_CONTEXT ( ( #302 ) ) GLOBAL_UNIT_ASSIGNED_CONTEXT ( ( #180, #74, #233 ) ) REPRESENTATION_CONTEXT ( 'NONE', 'WORKASPACE' ) );
#36 = VECTOR ( 'NONE', #211, 1000.000000000000000 ) ;
#37 = CARTESIAN_POINT ( 'NONE',  ( -9.000000000000000000, 2.000000000000000000, 9.000000000000000000 ) ) ;
#38 = PRODUCT_DEFINITION_SHAPE ( 'NONE', 'NONE',  #191 ) ;
#39 = DIRECTION ( 'NONE',  ( 0.0000000000000000000, 0.0000000000000000000, -1.000000000000000000 ) ) ;
#40 = SURFACE_STYLE_USAGE ( .BOTH. , #202 ) ;
#41 = CARTESIAN_POINT ( 'NONE',  ( 0.0000000000000000000, -2.000000000000000000, 0.0000000000000000000 ) ) ;
#42 = VERTEX_POINT ( 'NONE', #167 ) ;
#43 = DIRECTION ( 'NONE',  ( -0.0000000000000000000, 1.000000000000000000, -0.0000000000000000000 ) ) ;
#44 = VECTOR ( 'NONE', #336, 1000.000000000000000 ) ;
#45 = DIRECTION ( 'NONE',  ( 0.0000000000000000000, 0.0000000000000000000, 1.000000000000000000 ) ) ;
#46 = DIRECTION ( 'NONE',  ( 0.0000000000000000000, 0.0000000000000000000, 1.000000000000000000 ) ) ;
#47 = CARTESIAN_POINT ( 'NONE',  ( 0.0000000000000000000, 0.0000000000000000000, 0.0000000000000000000 ) ) ;
#48 = EDGE_CURVE ( 'NONE', #296, #20, #55, .T. ) ;
#49 = VECTOR ( 'NONE', #278, 1000.000000000000000 ) ;
#50 =( LENGTH_UNIT ( ) NAMED_UNIT ( * ) SI_UNIT ( .MILLI., .METRE. ) );
#51 = UNCERTAINTY_MEASURE_WITH_UNIT (LENGTH_MEASURE( 1.000000000000000100E-005 ), #169, 'distance_accuracy_value', 'NONE');
#52 = CARTESIAN_POINT ( 'NONE',  ( 0.0000000000000000000, -2.000000000000000000, 0.0000000000000000000 ) ) ;
#53 = APPLICATION_PROTOCOL_DEFINITION ( 'draft international standard', 'automotive_design', 1998, #314 ) ;
#54 = AXIS2_PLACEMENT_3D ( 'NONE', #182, #310, #288 ) ;
#55 = LINE ( 'NONE', #326, #193 ) ;
#56 = ADVANCED_FACE ( 'NONE', ( #264 ), #203, .F. ) ;
#57 = ORIENTED_EDGE ( 'NONE', *, *, #218, .F. ) ;
#58 = ORIENTED_EDGE ( 'NONE', *, *, #268, .T. ) ;
#59 = VERTEX_POINT ( 'NONE', #281 ) ;
#60 = AXIS2_PLACEMENT_3D ( 'NONE', #7, #198, #199 ) ;
#61 = DIRECTION ( 'NONE',  ( -0.0000000000000000000, -1.000000000000000000, -0.0000000000000000000 ) ) ;
#62 = DIRECTION ( 'NONE',  ( 0.0000000000000000000, 1.000000000000000000, 0.0000000000000000000 ) ) ;
#63 = SHAPE_REPRESENTATION ( 'SNSD.30.51.19. Ñóõàðü ïàçîâûé ñ ïðóæèííîé ïëàñòèíîé M6, ïàç 8(B79)B80B78B81_00', ( #335 ), #283 ) ;
#64 = VERTEX_POINT ( 'NONE', #226 ) ;
#65 = DIRECTION ( 'NONE',  ( 1.000000000000000000, 0.0000000000000000000, 0.0000000000000000000 ) ) ;
#66 = DIRECTION ( 'NONE',  ( 0.0000000000000000000, 1.000000000000000000, 0.0000000000000000000 ) ) ;
#67 = PRESENTATION_LAYER_ASSIGNMENT (  '', '', ( #327 ) ) ;
#68 = SURFACE_SIDE_STYLE ('',( #317 ) ) ;
#69 =( LENGTH_UNIT ( ) NAMED_UNIT ( * ) SI_UNIT ( .MILLI., .METRE. ) );
#70 = CARTESIAN_POINT ( 'NONE',  ( -9.000000000000000000, -2.000000000000000000, -9.000000000000000000 ) ) ;
#71 = EDGE_CURVE ( 'NONE', #64, #197, #85, .T. ) ;
#72 = CYLINDRICAL_SURFACE ( 'NONE', #332, 1.600000000000000100 ) ;
#73 = FILL_AREA_STYLE ('',( #185 ) ) ;
#74 =( NAMED_UNIT ( * ) PLANE_ANGLE_UNIT ( ) SI_UNIT ( $, .RADIAN. ) );
#75 = ADVANCED_FACE ( 'NONE', ( #290 ), #72, .F. ) ;
#76 = ADVANCED_FACE ( 'NONE', ( #34 ), #93, .F. ) ;
#77 = APPLICATION_CONTEXT ( 'automotive_design' ) ;
#78 = EDGE_CURVE ( 'NONE', #59, #244, #249, .T. ) ;
#79 = AXIS2_PLACEMENT_3D ( 'NONE', #128, #46, #178 ) ;
#80 = VERTEX_POINT ( 'NONE', #282 ) ;
#81 = VECTOR ( 'NONE', #61, 1000.000000000000000 ) ;
#82 = EDGE_CURVE ( 'NONE', #91, #20, #33, .T. ) ;
#83 = ORIENTED_EDGE ( 'NONE', *, *, #48, .T. ) ;
#84 = EDGE_CURVE ( 'NONE', #42, #296, #256, .T. ) ;
#85 = LINE ( 'NONE', #90, #49 ) ;
#86 = UNCERTAINTY_MEASURE_WITH_UNIT (LENGTH_MEASURE( 1.000000000000000100E-005 ), #105, 'distance_accuracy_value', 'NONE');
#87 = PRODUCT_DEFINITION ( 'UNKNOWN', '', #107, #240 ) ;
#88 = ORIENTED_EDGE ( 'NONE', *, *, #78, .F. ) ;
#89 = PLANE ( 'NONE',  #60 ) ;
#90 = CARTESIAN_POINT ( 'NONE',  ( 8.999999999999998200, 2.000000000000000000, -8.999999999999998200 ) ) ;
#91 = VERTEX_POINT ( 'NONE', #329 ) ;
#92 = CARTESIAN_POINT ( 'NONE',  ( -9.000000000000000000, -2.000000000000000000, 9.000000000000000000 ) ) ;
#93 = PLANE ( 'NONE',  #130 ) ;
#94 = EDGE_CURVE ( 'NONE', #325, #80, #188, .T. ) ;
#95 =( NAMED_UNIT ( * ) PLANE_ANGLE_UNIT ( ) SI_UNIT ( $, .RADIAN. ) );
#96 =( NAMED_UNIT ( * ) SI_UNIT ( $, .STERADIAN. ) SOLID_ANGLE_UNIT ( ) );
#97 = ORIENTED_EDGE ( 'NONE', *, *, #274, .T. ) ;
#98 = LINE ( 'NONE', #8, #247 ) ;
#99 =( NAMED_UNIT ( * ) PLANE_ANGLE_UNIT ( ) SI_UNIT ( $, .RADIAN. ) );
#100 =( NAMED_UNIT ( * ) PLANE_ANGLE_UNIT ( ) SI_UNIT ( $, .RADIAN. ) );
#101 = EDGE_CURVE ( 'NONE', #325, #179, #98, .T. ) ;
#102 = CLOSED_SHELL ( 'NONE', ( #216, #56, #183, #260, #76, #186, #25, #75 ) ) ;
#103 = DIRECTION ( 'NONE',  ( 0.0000000000000000000, 1.000000000000000000, 0.0000000000000000000 ) ) ;
#104 = EDGE_LOOP ( 'NONE', ( #112, #269, #58, #144 ) ) ;
#105 =( LENGTH_UNIT ( ) NAMED_UNIT ( * ) SI_UNIT ( .MILLI., .METRE. ) );
#106 = PRODUCT_CONTEXT ( 'NONE', #314, 'mechanical' ) ;
#107 = PRODUCT_DEFINITION_FORMATION_WITH_SPECIFIED_SOURCE ( 'ANY', '', #166, .NOT_KNOWN. ) ;
#108 = ORIENTED_EDGE ( 'NONE', *, *, #28, .F. ) ;
#109 = FACE_OUTER_BOUND ( 'NONE', #304, .T. ) ;
#110 = APPLICATION_PROTOCOL_DEFINITION ( 'draft international standard', 'automotive_design', 1998, #77 ) ;
#111 = EDGE_CURVE ( 'NONE', #255, #64, #154, .T. ) ;
#112 = ORIENTED_EDGE ( 'NONE', *, *, #48, .F. ) ;
#113 = ORIENTED_EDGE ( 'NONE', *, *, #171, .F. ) ;
#114 = AXIS2_PLACEMENT_3D ( 'NONE', #334, #122, #176 ) ;
#115 = VECTOR ( 'NONE', #13, 1000.000000000000000 ) ;
#116 = LINE ( 'NONE', #214, #36 ) ;
#117 =( NAMED_UNIT ( * ) PLANE_ANGLE_UNIT ( ) SI_UNIT ( $, .RADIAN. ) );
#118 = ORIENTED_EDGE ( 'NONE', *, *, #6, .F. ) ;
#119 = PRESENTATION_LAYER_ASSIGNMENT (  '', '', ( #315 ) ) ;
#120 = SURFACE_STYLE_FILL_AREA ( #323 ) ;
#121 = DIRECTION ( 'NONE',  ( -0.0000000000000000000, 1.000000000000000000, -0.0000000000000000000 ) ) ;
#122 = DIRECTION ( 'NONE',  ( 0.0000000000000000000, 1.000000000000000000, 0.0000000000000000000 ) ) ;
#123 = PRESENTATION_LAYER_ASSIGNMENT (  '', '', ( #3 ) ) ;
#124 = CARTESIAN_POINT ( 'NONE',  ( -9.000000000000000000, -2.000000000000000000, -9.000000000000000000 ) ) ;
#125 = DIRECTION ( 'NONE',  ( -0.0000000000000000000, -1.000000000000000000, -0.0000000000000000000 ) ) ;
#126 = ORIENTED_EDGE ( 'NONE', *, *, #101, .T. ) ;
#127 = DIRECTION ( 'NONE',  ( 1.000000000000000000, 0.0000000000000000000, 0.0000000000000000000 ) ) ;
#128 = CARTESIAN_POINT ( 'NONE',  ( 0.0000000000000000000, 0.0000000000000000000, 0.0000000000000000000 ) ) ;
#129 = FACE_BOUND ( 'NONE', #237, .T. ) ;
#130 = AXIS2_PLACEMENT_3D ( 'NONE', #200, #331, #301 ) ;
#131 = SURFACE_STYLE_FILL_AREA ( #73 ) ;
#132 = EDGE_LOOP ( 'NONE', ( #284, #238 ) ) ;
#133 = COLOUR_RGB ( '',0.6980392156862744700, 0.6980392156862744700, 0.6980392156862744700 ) ;
#134 = ORIENTED_EDGE ( 'NONE', *, *, #205, .F. ) ;
#135 = PRODUCT_DEFINITION_SHAPE ( 'NONE', 'NONE',  #87 ) ;
#136 =( NAMED_UNIT ( * ) SI_UNIT ( $, .STERADIAN. ) SOLID_ANGLE_UNIT ( ) );
#137 = VECTOR ( 'NONE', #127, 1000.000000000000000 ) ;
#138 = DIRECTION ( 'NONE',  ( -1.000000000000000000, 0.0000000000000000000, -0.0000000000000000000 ) ) ;
#139 = VECTOR ( 'NONE', #222, 1000.000000000000000 ) ;
#140 = ADVANCED_BREP_SHAPE_REPRESENTATION ( '', ( #22, #335 ), #283 ) ;
#141 = FILL_AREA_STYLE_COLOUR ( '', #248 ) ;
#142 = EDGE_CURVE ( 'NONE', #197, #179, #175, .T. ) ;
#143 = CARTESIAN_POINT ( 'NONE',  ( -9.000000000000000000, 2.000000000000000000, -9.000000000000000000 ) ) ;
#144 = ORIENTED_EDGE ( 'NONE', *, *, #82, .T. ) ;
#145 = CARTESIAN_POINT ( 'NONE',  ( 8.999999999999998200, 2.000000000000000000, -8.999999999999998200 ) ) ;
#146 = SHAPE_REPRESENTATION_RELATIONSHIP ( 'NONE' , 'NONE' ,  #63, #140 ) ;
#147 = CARTESIAN_POINT ( 'NONE',  ( 0.0000000000000000000, 0.0000000000000000000, 0.0000000000000000000 ) ) ;
#148 = AXIS2_PLACEMENT_3D ( 'NONE', #47, #339, #263 ) ;
#149 = CARTESIAN_POINT ( 'NONE',  ( -9.000000000000000000, 2.000000000000000000, -9.000000000000000000 ) ) ;
#150 = LINE ( 'NONE', #275, #81 ) ;
#151 = DIRECTION ( 'NONE',  ( 0.0000000000000000000, 0.0000000000000000000, 1.000000000000000000 ) ) ;
#152 =( GEOMETRIC_REPRESENTATION_CONTEXT ( 3 ) GLOBAL_UNCERTAINTY_ASSIGNED_CONTEXT ( ( #51 ) ) GLOBAL_UNIT_ASSIGNED_CONTEXT ( ( #169, #117, #136 ) ) REPRESENTATION_CONTEXT ( 'NONE', 'WORKASPACE' ) );
#153 = CARTESIAN_POINT ( 'NONE',  ( 9.000000000000005300, 2.000000000000000000, 9.000000000000000000 ) ) ;
#154 = LINE ( 'NONE', #145, #312 ) ;
#155 = AXIS2_PLACEMENT_3D ( 'NONE', #37, #224, #138 ) ;
#156 = PRESENTATION_STYLE_ASSIGNMENT (( #340 ) ) ;
#157 = PRODUCT_CONTEXT ( 'NONE', #217, 'mechanical' ) ;
#158 = ORIENTED_EDGE ( 'NONE', *, *, #268, .F. ) ;
#159 = COLOUR_RGB ( '',0.6980392156862744700, 0.6980392156862744700, 0.6980392156862744700 ) ;
#160 = AXIS2_PLACEMENT_3D ( 'NONE', #147, #262, #289 ) ;
#161 = AXIS2_PLACEMENT_3D ( 'NONE', #300, #66, #45 ) ;
#162 = ORIENTED_EDGE ( 'NONE', *, *, #94, .T. ) ;
#163 = PRODUCT ( 'SNSD.30.51.33. Ñóõàðü ïàçîâûé ñ ïðóæèííîé ïëàñòèíîé M4, ïàç 10(B81)', 'SNSD.30.51.33. Ñóõàðü ïàçîâûé ñ ïðóæèííîé ïëàñòèíîé M4, ïàç 10(B81)', '', ( #106 ) ) ;
#164 = AXIS2_PLACEMENT_3D ( 'NONE', #10, #43, #338 ) ;
#165 = LINE ( 'NONE', #153, #311 ) ;
#166 = PRODUCT ( 'SNSD.30.51.19. Ñóõàðü ïàçîâûé ñ ïðóæèííîé ïëàñòèíîé M6, ïàç 8(B79)B80B78B81_00', 'SNSD.30.51.19. Ñóõàðü ïàçîâûé ñ ïðóæèííîé ïëàñòèíîé M6, ïàç 8(B79)B80B78B81_00', '', ( #157 ) ) ;
#167 = CARTESIAN_POINT ( 'NONE',  ( 0.0000000000000000000, -2.000000000000000000, 1.600000000000000100 ) ) ;
#168 = EDGE_LOOP ( 'NONE', ( #272, #83, #324, #158 ) ) ;
#169 =( LENGTH_UNIT ( ) NAMED_UNIT ( * ) SI_UNIT ( .MILLI., .METRE. ) );
#170 = DIRECTION ( 'NONE',  ( -3.854941057726239100E-016, -0.0000000000000000000, -1.000000000000000000 ) ) ;
#171 = EDGE_CURVE ( 'NONE', #64, #325, #297, .T. ) ;
#172 = CIRCLE ( 'NONE', #19, 1.600000000000000100 ) ;
#173 = SURFACE_STYLE_USAGE ( .BOTH. , #250 ) ;
#174 = FILL_AREA_STYLE ('',( #228 ) ) ;
#175 = LINE ( 'NONE', #124, #44 ) ;
#176 = DIRECTION ( 'NONE',  ( 0.0000000000000000000, 0.0000000000000000000, 1.000000000000000000 ) ) ;
#177 = DIRECTION ( 'NONE',  ( 0.0000000000000000000, 0.0000000000000000000, 1.000000000000000000 ) ) ;
#178 = DIRECTION ( 'NONE',  ( 1.000000000000000000, 0.0000000000000000000, 0.0000000000000000000 ) ) ;
#179 = VERTEX_POINT ( 'NONE', #70 ) ;
#180 =( LENGTH_UNIT ( ) NAMED_UNIT ( * ) SI_UNIT ( .MILLI., .METRE. ) );
#181 = VECTOR ( 'NONE', #207, 1000.000000000000000 ) ;
#182 = CARTESIAN_POINT ( 'NONE',  ( 8.999999999999998200, 2.000000000000000000, -8.999999999999998200 ) ) ;
#183 = ADVANCED_FACE ( 'NONE', ( #109 ), #227, .F. ) ;
#184 = SHAPE_REPRESENTATION ( 'SNSD.30.51.33. Ñóõàðü ïàçîâûé ñ ïðóæèííîé ïëàñòèíîé M4, ïàç 10(B81)', ( #160, #148 ), #35 ) ;
#185 = FILL_AREA_STYLE_COLOUR ( '', #273 ) ;
#186 = ADVANCED_FACE ( 'NONE', ( #24, #232 ), #306, .T. ) ;
#187 = ORIENTED_EDGE ( 'NONE', *, *, #6, .T. ) ;
#188 = LINE ( 'NONE', #225, #115 ) ;
#189 = APPLICATION_PROTOCOL_DEFINITION ( 'draft international standard', 'automotive_design', 1998, #313 ) ;
#190 = FACE_OUTER_BOUND ( 'NONE', #168, .T. ) ;
#191 = PRODUCT_DEFINITION ( 'UNKNOWN', '', #266, #196 ) ;
#192 = ORIENTED_EDGE ( 'NONE', *, *, #101, .F. ) ;
#193 = VECTOR ( 'NONE', #121, 1000.000000000000000 ) ;
#194 =( GEOMETRIC_REPRESENTATION_CONTEXT ( 3 ) GLOBAL_UNCERTAINTY_ASSIGNED_CONTEXT ( ( #2 ) ) GLOBAL_UNIT_ASSIGNED_CONTEXT ( ( #69, #258, #96 ) ) REPRESENTATION_CONTEXT ( 'NONE', 'WORKASPACE' ) );
#195 = PRESENTATION_LAYER_ASSIGNMENT (  '', '', ( #30 ) ) ;
#196 = PRODUCT_DEFINITION_CONTEXT ( 'detailed design', #77, 'design' ) ;
#197 = VERTEX_POINT ( 'NONE', #14 ) ;
#198 = DIRECTION ( 'NONE',  ( 0.0000000000000000000, 1.000000000000000000, 0.0000000000000000000 ) ) ;
#199 = DIRECTION ( 'NONE',  ( 0.0000000000000000000, -0.0000000000000000000, 1.000000000000000000 ) ) ;
#200 = CARTESIAN_POINT ( 'NONE',  ( -9.000000000000000000, 2.000000000000000000, -9.000000000000000000 ) ) ;
#201 = SURFACE_STYLE_USAGE ( .BOTH. , #68 ) ;
#202 = SURFACE_SIDE_STYLE ('',( #27 ) ) ;
#203 = PLANE ( 'NONE',  #220 ) ;
#204 = DIRECTION ( 'NONE',  ( -3.854941057726239100E-016, -0.0000000000000000000, -1.000000000000000000 ) ) ;
#205 = EDGE_CURVE ( 'NONE', #244, #197, #308, .T. ) ;
#206 = VECTOR ( 'NONE', #204, 1000.000000000000000 ) ;
#207 = DIRECTION ( 'NONE',  ( 1.000000000000000000, 0.0000000000000000000, 0.0000000000000000000 ) ) ;
#208 = PRODUCT_RELATED_PRODUCT_CATEGORY ( 'part', '', ( #166 ) ) ;
#209 = ORIENTED_EDGE ( 'NONE', *, *, #305, .F. ) ;
#210 = ORIENTED_EDGE ( 'NONE', *, *, #171, .T. ) ;
#211 = DIRECTION ( 'NONE',  ( -0.0000000000000000000, 1.000000000000000000, -0.0000000000000000000 ) ) ;
#212 = CARTESIAN_POINT ( 'NONE',  ( -9.000000000000000000, 2.000000000000000000, 9.000000000000000000 ) ) ;
#213 = DIRECTION ( 'NONE',  ( 0.0000000000000000000, 1.000000000000000000, 0.0000000000000000000 ) ) ;
#214 = CARTESIAN_POINT ( 'NONE',  ( 0.0000000000000000000, -2.000000000000000000, 1.600000000000000100 ) ) ;
#215 = UNCERTAINTY_MEASURE_WITH_UNIT (LENGTH_MEASURE( 1.000000000000000100E-005 ), #50, 'distance_accuracy_value', 'NONE');
#216 = ADVANCED_FACE ( 'NONE', ( #190 ), #242, .F. ) ;
#217 = APPLICATION_CONTEXT ( 'automotive_design' ) ;
#218 = EDGE_CURVE ( 'NONE', #80, #255, #298, .T. ) ;
#219 = ORIENTED_EDGE ( 'NONE', *, *, #78, .T. ) ;
#220 = AXIS2_PLACEMENT_3D ( 'NONE', #303, #65, #39 ) ;
#221 = EDGE_LOOP ( 'NONE', ( #187, #108, #32, #126 ) ) ;
#222 = DIRECTION ( 'NONE',  ( 0.0000000000000000000, 0.0000000000000000000, 1.000000000000000000 ) ) ;
#223 = FILL_AREA_STYLE_COLOUR ( '', #133 ) ;
#224 = DIRECTION ( 'NONE',  ( 0.0000000000000000000, 0.0000000000000000000, -1.000000000000000000 ) ) ;
#225 = CARTESIAN_POINT ( 'NONE',  ( -9.000000000000000000, 2.000000000000000000, -9.000000000000000000 ) ) ;
#226 = CARTESIAN_POINT ( 'NONE',  ( 8.999999999999998200, 2.000000000000000000, -8.999999999999998200 ) ) ;
#227 = PLANE ( 'NONE',  #155 ) ;
#228 = FILL_AREA_STYLE_COLOUR ( '', #159 ) ;
#229 = FILL_AREA_STYLE ('',( #141 ) ) ;
#230 = ORIENTED_EDGE ( 'NONE', *, *, #305, .T. ) ;
#231 = CARTESIAN_POINT ( 'NONE',  ( 0.0000000000000000000, 2.000000000000000000, 0.0000000000000000000 ) ) ;
#232 = FACE_OUTER_BOUND ( 'NONE', #299, .T. ) ;
#233 =( NAMED_UNIT ( * ) SI_UNIT ( $, .STERADIAN. ) SOLID_ANGLE_UNIT ( ) );
#234 = CIRCLE ( 'NONE', #271, 1.600000000000000100 ) ;
#235 =( NAMED_UNIT ( * ) SI_UNIT ( $, .STERADIAN. ) SOLID_ANGLE_UNIT ( ) );
#236 = CARTESIAN_POINT ( 'NONE',  ( 1.959434878635765200E-016, -2.000000000000000000, -1.600000000000000100 ) ) ;
#237 = EDGE_LOOP ( 'NONE', ( #316, #97 ) ) ;
#238 = ORIENTED_EDGE ( 'NONE', *, *, #285, .F. ) ;
#239 = DIRECTION ( 'NONE',  ( 1.000000000000000000, 0.0000000000000000000, 0.0000000000000000000 ) ) ;
#240 = PRODUCT_DEFINITION_CONTEXT ( 'detailed design', #313, 'design' ) ;
#241 = VECTOR ( 'NONE', #251, 1000.000000000000000 ) ;
#242 = CYLINDRICAL_SURFACE ( 'NONE', #164, 1.600000000000000100 ) ;
#243 = APPLICATION_PROTOCOL_DEFINITION ( 'draft international standard', 'automotive_design', 1998, #217 ) ;
#244 = VERTEX_POINT ( 'NONE', #254 ) ;
#245 =( GEOMETRIC_REPRESENTATION_CONTEXT ( 3 ) GLOBAL_UNCERTAINTY_ASSIGNED_CONTEXT ( ( #330 ) ) GLOBAL_UNIT_ASSIGNED_CONTEXT ( ( #257, #95, #9 ) ) REPRESENTATION_CONTEXT ( 'NONE', 'WORKASPACE' ) );
#246 = ORIENTED_EDGE ( 'NONE', *, *, #111, .F. ) ;
#247 = VECTOR ( 'NONE', #125, 1000.000000000000000 ) ;
#248 = COLOUR_RGB ( '',0.6980392156862744700, 0.6980392156862744700, 0.6980392156862744700 ) ;
#249 = LINE ( 'NONE', #92, #181 ) ;
#250 = SURFACE_SIDE_STYLE ('',( #120 ) ) ;
#251 = DIRECTION ( 'NONE',  ( -1.000000000000000000, -0.0000000000000000000, -9.637352644315597700E-017 ) ) ;
#252 = DIRECTION ( 'NONE',  ( 0.0000000000000000000, -0.0000000000000000000, 1.000000000000000000 ) ) ;
#253 = MECHANICAL_DESIGN_GEOMETRIC_PRESENTATION_REPRESENTATION (  '', ( #3 ), #194 ) ;
#254 = CARTESIAN_POINT ( 'NONE',  ( 9.000000000000005300, -2.000000000000000000, 9.000000000000000000 ) ) ;
#255 = VERTEX_POINT ( 'NONE', #309 ) ;
#256 = CIRCLE ( 'NONE', #161, 1.600000000000000100 ) ;
#257 =( LENGTH_UNIT ( ) NAMED_UNIT ( * ) SI_UNIT ( .MILLI., .METRE. ) );
#258 =( NAMED_UNIT ( * ) PLANE_ANGLE_UNIT ( ) SI_UNIT ( $, .RADIAN. ) );
#259 = DIRECTION ( 'NONE',  ( -0.0000000000000000000, -1.000000000000000000, -0.0000000000000000000 ) ) ;
#260 = ADVANCED_FACE ( 'NONE', ( #267 ), #15, .F. ) ;
#261 = ORIENTED_EDGE ( 'NONE', *, *, #111, .T. ) ;
#262 = DIRECTION ( 'NONE',  ( 0.0000000000000000000, 0.0000000000000000000, 1.000000000000000000 ) ) ;
#263 = DIRECTION ( 'NONE',  ( 1.000000000000000000, 0.0000000000000000000, 0.0000000000000000000 ) ) ;
#264 = FACE_OUTER_BOUND ( 'NONE', #221, .T. ) ;
#265 =( REPRESENTATION_RELATIONSHIP ('NONE','NONE', #184, #63 ) REPRESENTATION_RELATIONSHIP_WITH_TRANSFORMATION ( #26 )SHAPE_REPRESENTATION_RELATIONSHIP( ) );
#266 = PRODUCT_DEFINITION_FORMATION_WITH_SPECIFIED_SOURCE ( 'ANY', '', #163, .NOT_KNOWN. ) ;
#267 = FACE_OUTER_BOUND ( 'NONE', #277, .T. ) ;
#268 = EDGE_CURVE ( 'NONE', #42, #91, #116, .T. ) ;
#269 = ORIENTED_EDGE ( 'NONE', *, *, #84, .F. ) ;
#270 = PRESENTATION_STYLE_ASSIGNMENT (( #201 ) ) ;
#271 = AXIS2_PLACEMENT_3D ( 'NONE', #52, #213, #287 ) ;
#272 = ORIENTED_EDGE ( 'NONE', *, *, #274, .F. ) ;
#273 = COLOUR_RGB ( '',0.6980392156862744700, 0.6980392156862744700, 0.6980392156862744700 ) ;
#274 = EDGE_CURVE ( 'NONE', #296, #42, #234, .T. ) ;
#275 = CARTESIAN_POINT ( 'NONE',  ( -9.000000000000000000, 2.000000000000000000, 9.000000000000000000 ) ) ;
#276 = ORIENTED_EDGE ( 'NONE', *, *, #28, .T. ) ;
#277 = EDGE_LOOP ( 'NONE', ( #337, #341, #246, #230 ) ) ;
#278 = DIRECTION ( 'NONE',  ( -0.0000000000000000000, -1.000000000000000000, -0.0000000000000000000 ) ) ;
#279 = CARTESIAN_POINT ( 'NONE',  ( -9.000000000000000000, -2.000000000000000000, -9.000000000000000000 ) ) ;
#280 = CARTESIAN_POINT ( 'NONE',  ( 8.999999999999998200, -2.000000000000000000, -8.999999999999998200 ) ) ;
#281 = CARTESIAN_POINT ( 'NONE',  ( -9.000000000000000000, -2.000000000000000000, 9.000000000000000000 ) ) ;
#282 = CARTESIAN_POINT ( 'NONE',  ( -9.000000000000000000, 2.000000000000000000, 9.000000000000000000 ) ) ;
#283 =( GEOMETRIC_REPRESENTATION_CONTEXT ( 3 ) GLOBAL_UNCERTAINTY_ASSIGNED_CONTEXT ( ( #215 ) ) GLOBAL_UNIT_ASSIGNED_CONTEXT ( ( #50, #99, #235 ) ) REPRESENTATION_CONTEXT ( 'NONE', 'WORKASPACE' ) );
#284 = ORIENTED_EDGE ( 'NONE', *, *, #82, .F. ) ;
#285 = EDGE_CURVE ( 'NONE', #20, #91, #172, .T. ) ;
#286 = CONTEXT_DEPENDENT_SHAPE_REPRESENTATION ( #265, #318 ) ;
#287 = DIRECTION ( 'NONE',  ( 0.0000000000000000000, 0.0000000000000000000, 1.000000000000000000 ) ) ;
#288 = DIRECTION ( 'NONE',  ( 3.854941057726239100E-016, 0.0000000000000000000, 1.000000000000000000 ) ) ;
#289 = DIRECTION ( 'NONE',  ( 1.000000000000000000, 0.0000000000000000000, 0.0000000000000000000 ) ) ;
#290 = FACE_OUTER_BOUND ( 'NONE', #104, .T. ) ;
#291 = DIRECTION ( 'NONE',  ( 0.0000000000000000000, 0.0000000000000000000, 1.000000000000000000 ) ) ;
#292 = SHAPE_DEFINITION_REPRESENTATION ( #135, #63 ) ;
#293 = EDGE_LOOP ( 'NONE', ( #118, #1, #134, #88 ) ) ;
#294 = SHAPE_DEFINITION_REPRESENTATION ( #38, #184 ) ;
#295 = ORIENTED_EDGE ( 'NONE', *, *, #142, .T. ) ;
#296 = VERTEX_POINT ( 'NONE', #236 ) ;
#297 = LINE ( 'NONE', #143, #241 ) ;
#298 = LINE ( 'NONE', #212, #137 ) ;
#299 = EDGE_LOOP ( 'NONE', ( #162, #320, #261, #210 ) ) ;
#300 = CARTESIAN_POINT ( 'NONE',  ( 0.0000000000000000000, -2.000000000000000000, 0.0000000000000000000 ) ) ;
#301 = DIRECTION ( 'NONE',  ( 1.000000000000000000, 0.0000000000000000000, 9.637352644315597700E-017 ) ) ;
#302 = UNCERTAINTY_MEASURE_WITH_UNIT (LENGTH_MEASURE( 1.000000000000000100E-005 ), #180, 'distance_accuracy_value', 'NONE');
#303 = CARTESIAN_POINT ( 'NONE',  ( -9.000000000000000000, 2.000000000000000000, -9.000000000000000000 ) ) ;
#304 = EDGE_LOOP ( 'NONE', ( #219, #209, #57, #276 ) ) ;
#305 = EDGE_CURVE ( 'NONE', #255, #244, #165, .T. ) ;
#306 = PLANE ( 'NONE',  #11 ) ;
#307 = CARTESIAN_POINT ( 'NONE',  ( 0.0000000000000000000, 2.000000000000000000, 0.0000000000000000000 ) ) ;
#308 = LINE ( 'NONE', #280, #206 ) ;
#309 = CARTESIAN_POINT ( 'NONE',  ( 9.000000000000005300, 2.000000000000000000, 9.000000000000000000 ) ) ;
#310 = DIRECTION ( 'NONE',  ( -1.000000000000000000, 0.0000000000000000000, 3.854941057726239100E-016 ) ) ;
#311 = VECTOR ( 'NONE', #259, 1000.000000000000000 ) ;
#312 = VECTOR ( 'NONE', #170, 1000.000000000000000 ) ;
#313 = APPLICATION_CONTEXT ( 'automotive_design' ) ;
#314 = APPLICATION_CONTEXT ( 'automotive_design' ) ;
#315 = STYLED_ITEM ( 'NONE', ( #29 ), #22 ) ;
#316 = ORIENTED_EDGE ( 'NONE', *, *, #84, .T. ) ;
#317 = SURFACE_STYLE_FILL_AREA ( #174 ) ;
#318 = PRODUCT_DEFINITION_SHAPE ( 'NONE', 'NONE',  #343 ) ;
#319 = MECHANICAL_DESIGN_GEOMETRIC_PRESENTATION_REPRESENTATION (  '', ( #327 ), #322 ) ;
#320 = ORIENTED_EDGE ( 'NONE', *, *, #218, .T. ) ;
#321 = MECHANICAL_DESIGN_GEOMETRIC_PRESENTATION_REPRESENTATION (  '', ( #315 ), #152 ) ;
#322 =( GEOMETRIC_REPRESENTATION_CONTEXT ( 3 ) GLOBAL_UNCERTAINTY_ASSIGNED_CONTEXT ( ( #86 ) ) GLOBAL_UNIT_ASSIGNED_CONTEXT ( ( #105, #100, #21 ) ) REPRESENTATION_CONTEXT ( 'NONE', 'WORKASPACE' ) );
#323 = FILL_AREA_STYLE ('',( #223 ) ) ;
#324 = ORIENTED_EDGE ( 'NONE', *, *, #285, .T. ) ;
#325 = VERTEX_POINT ( 'NONE', #149 ) ;
#326 = CARTESIAN_POINT ( 'NONE',  ( 1.959434878635765200E-016, -2.000000000000000000, -1.600000000000000100 ) ) ;
#327 = STYLED_ITEM ( 'NONE', ( #156 ), #140 ) ;
#328 = CARTESIAN_POINT ( 'NONE',  ( 1.959434878635765200E-016, 2.000000000000000000, -1.600000000000000100 ) ) ;
#329 = CARTESIAN_POINT ( 'NONE',  ( 0.0000000000000000000, 2.000000000000000000, 1.600000000000000100 ) ) ;
#330 = UNCERTAINTY_MEASURE_WITH_UNIT (LENGTH_MEASURE( 1.000000000000000100E-005 ), #257, 'distance_accuracy_value', 'NONE');
#331 = DIRECTION ( 'NONE',  ( -9.637352644315597700E-017, 0.0000000000000000000, 1.000000000000000000 ) ) ;
#332 = AXIS2_PLACEMENT_3D ( 'NONE', #41, #12, #177 ) ;
#333 = FACE_OUTER_BOUND ( 'NONE', #293, .T. ) ;
#334 = CARTESIAN_POINT ( 'NONE',  ( 0.0000000000000000000, 2.000000000000000000, 0.0000000000000000000 ) ) ;
#335 = AXIS2_PLACEMENT_3D ( 'NONE', #17, #151, #239 ) ;
#336 = DIRECTION ( 'NONE',  ( -1.000000000000000000, -0.0000000000000000000, -9.637352644315597700E-017 ) ) ;
#337 = ORIENTED_EDGE ( 'NONE', *, *, #205, .T. ) ;
#338 = DIRECTION ( 'NONE',  ( 0.0000000000000000000, 0.0000000000000000000, 1.000000000000000000 ) ) ;
#339 = DIRECTION ( 'NONE',  ( 0.0000000000000000000, 0.0000000000000000000, 1.000000000000000000 ) ) ;
#340 = SURFACE_STYLE_USAGE ( .BOTH. , #23 ) ;
#341 = ORIENTED_EDGE ( 'NONE', *, *, #71, .F. ) ;
#342 = MECHANICAL_DESIGN_GEOMETRIC_PRESENTATION_REPRESENTATION (  '', ( #30 ), #245 ) ;
#343 = NEXT_ASSEMBLY_USAGE_OCCURRENCE ( 'NAUO1', ' ', ' ', #191, #87, $ ) ;
ENDSEC;
END-ISO-10303-21;
