ISO-10303-21;
HEADER;
FILE_DESCRIPTION (( 'STEP AP214' ),
    '1' );
FILE_NAME ('L2020S1.5X Ïðîôèëü àëþìèíèåâûé, óãîëîê 20õ20õ1.5.STEP',
    '2025-11-18T10:46:22',
    ( '' ),
    ( '' ),
    'SwSTEP 2.0',
    'SolidWorks 2025',
    '' );
FILE_SCHEMA (( 'AUTOMOTIVE_DESIGN' ));
ENDSEC;

DATA;
#1 = AXIS2_PLACEMENT_3D ( 'NONE', #235, #8, #9 ) ;
#2 = ORIENTED_EDGE ( 'NONE', *, *, #221, .F. ) ;
#3 = ORIENTED_EDGE ( 'NONE', *, *, #7, .T. ) ;
#4 =( NAMED_UNIT ( * ) PLANE_ANGLE_UNIT ( ) SI_UNIT ( $, .RADIAN. ) );
#5 = VERTEX_POINT ( 'NONE', #71 ) ;
#6 = ORIENTED_EDGE ( 'NONE', *, *, #193, .F. ) ;
#7 = EDGE_CURVE ( 'NONE', #112, #43, #172, .T. ) ;
#8 = DIRECTION ( 'NONE',  ( 0.000000000000000000, 1.000000000000000000, 0.000000000000000000 ) ) ;
#9 = DIRECTION ( 'NONE',  ( 0.000000000000000000, -0.000000000000000000, 1.000000000000000000 ) ) ;
#10 = DIRECTION ( 'NONE',  ( -0.000000000000000000, -1.000000000000000000, -0.000000000000000000 ) ) ;
#11 = DIRECTION ( 'NONE',  ( 0.000000000000000000, -1.000000000000000000, 0.000000000000000000 ) ) ;
#12 = ADVANCED_FACE ( 'NONE', ( #169 ), #259, .F. ) ;
#13 = FACE_OUTER_BOUND ( 'NONE', #129, .T. ) ;
#14 = VECTOR ( 'NONE', #234, 1000.000000000000000 ) ;
#15 = CARTESIAN_POINT ( 'NONE',  ( 1.500000000000002220, 1.500000000000000000, 500.0000000000000000 ) ) ;
#16 = PLANE ( 'NONE',  #288 ) ;
#17 = LINE ( 'NONE', #100, #148 ) ;
#18 = FACE_OUTER_BOUND ( 'NONE', #250, .T. ) ;
#19 = VECTOR ( 'NONE', #243, 1000.000000000000000 ) ;
#20 = ORIENTED_EDGE ( 'NONE', *, *, #150, .F. ) ;
#21 =( GEOMETRIC_REPRESENTATION_CONTEXT ( 3 ) GLOBAL_UNCERTAINTY_ASSIGNED_CONTEXT ( ( #31 ) ) GLOBAL_UNIT_ASSIGNED_CONTEXT ( ( #130, #85, #271 ) ) REPRESENTATION_CONTEXT ( 'NONE', 'WORKASPACE' ) );
#22 = VECTOR ( 'NONE', #103, 1000.000000000000000 ) ;
#23 = ORIENTED_EDGE ( 'NONE', *, *, #90, .F. ) ;
#24 = CARTESIAN_POINT ( 'NONE',  ( 0.000000000000000000, 0.000000000000000000, 0.000000000000000000 ) ) ;
#25 = ORIENTED_EDGE ( 'NONE', *, *, #135, .T. ) ;
#26 = VERTEX_POINT ( 'NONE', #93 ) ;
#27 = ORIENTED_EDGE ( 'NONE', *, *, #168, .F. ) ;
#28 = DIRECTION ( 'NONE',  ( 0.000000000000000000, -0.000000000000000000, -1.000000000000000000 ) ) ;
#29 = DIRECTION ( 'NONE',  ( 0.000000000000000000, 0.000000000000000000, 1.000000000000000000 ) ) ;
#30 = LINE ( 'NONE', #95, #239 ) ;
#31 = UNCERTAINTY_MEASURE_WITH_UNIT (LENGTH_MEASURE( 1.000000000000000082E-05 ), #130, 'distance_accuracy_value', 'NONE');
#32 = VECTOR ( 'NONE', #238, 1000.000000000000000 ) ;
#33 = DIRECTION ( 'NONE',  ( 0.000000000000000000, 0.000000000000000000, 1.000000000000000000 ) ) ;
#34 = CARTESIAN_POINT ( 'NONE',  ( 0.5000000000000035527, 0.000000000000000000, 500.0000000000000000 ) ) ;
#35 = LINE ( 'NONE', #199, #198 ) ;
#36 = CARTESIAN_POINT ( 'NONE',  ( 0.4999999999999998890, 0.4999999999999998890, -500.0000000000000000 ) ) ;
#37 = DIRECTION ( 'NONE',  ( -1.000000000000000000, -0.000000000000000000, -0.000000000000000000 ) ) ;
#38 = PRESENTATION_STYLE_ASSIGNMENT (( #57 ) ) ;
#39 = LINE ( 'NONE', #217, #189 ) ;
#40 = PRODUCT_DEFINITION ( 'UNKNOWN', '', #53, #191 ) ;
#41 = FACE_OUTER_BOUND ( 'NONE', #269, .T. ) ;
#42 = ORIENTED_EDGE ( 'NONE', *, *, #176, .F. ) ;
#43 = VERTEX_POINT ( 'NONE', #48 ) ;
#44 = ORIENTED_EDGE ( 'NONE', *, *, #256, .T. ) ;
#45 = ORIENTED_EDGE ( 'NONE', *, *, #72, .F. ) ;
#46 = EDGE_LOOP ( 'NONE', ( #204, #136, #131, #231 ) ) ;
#47 = PLANE ( 'NONE',  #89 ) ;
#48 = CARTESIAN_POINT ( 'NONE',  ( 0.000000000000000000, 0.5000000000000035527, 500.0000000000000000 ) ) ;
#49 = DIRECTION ( 'NONE',  ( 1.000000000000000000, 0.000000000000000000, 0.000000000000000000 ) ) ;
#50 = ADVANCED_FACE ( 'NONE', ( #276 ), #118, .F. ) ;
#51 = LINE ( 'NONE', #188, #75 ) ;
#52 = LINE ( 'NONE', #142, #99 ) ;
#53 = PRODUCT_DEFINITION_FORMATION_WITH_SPECIFIED_SOURCE ( 'ANY', '', #121, .NOT_KNOWN. ) ;
#54 = DIRECTION ( 'NONE',  ( -0.000000000000000000, -0.000000000000000000, -1.000000000000000000 ) ) ;
#55 = LINE ( 'NONE', #123, #156 ) ;
#56 = FILL_AREA_STYLE ('',( #244 ) ) ;
#57 = SURFACE_STYLE_USAGE ( .BOTH. , #151 ) ;
#58 = EDGE_CURVE ( 'NONE', #113, #251, #51, .T. ) ;
#59 = CARTESIAN_POINT ( 'NONE',  ( 20.00000000000000000, 0.000000000000000000, 500.0000000000000000 ) ) ;
#60 = APPLICATION_PROTOCOL_DEFINITION ( 'draft international standard', 'automotive_design', 1998, #215 ) ;
#61 = AXIS2_PLACEMENT_3D ( 'NONE', #92, #11, #144 ) ;
#62 = ORIENTED_EDGE ( 'NONE', *, *, #176, .T. ) ;
#63 = ORIENTED_EDGE ( 'NONE', *, *, #72, .T. ) ;
#64 = ORIENTED_EDGE ( 'NONE', *, *, #135, .F. ) ;
#65 = ORIENTED_EDGE ( 'NONE', *, *, #203, .F. ) ;
#66 = VECTOR ( 'NONE', #178, 1000.000000000000000 ) ;
#67 =( NAMED_UNIT ( * ) SI_UNIT ( $, .STERADIAN. ) SOLID_ANGLE_UNIT ( ) );
#68 = VERTEX_POINT ( 'NONE', #257 ) ;
#69 = ORIENTED_EDGE ( 'NONE', *, *, #256, .F. ) ;
#70 = CARTESIAN_POINT ( 'NONE',  ( 0.000000000000000000, 20.00000000000000000, -500.0000000000000000 ) ) ;
#71 = CARTESIAN_POINT ( 'NONE',  ( 1.500000000000000000, 20.00000000000000000, 500.0000000000000000 ) ) ;
#72 = EDGE_CURVE ( 'NONE', #165, #26, #167, .T. ) ;
#73 = CARTESIAN_POINT ( 'NONE',  ( 20.00000000000000000, 0.000000000000000000, -500.0000000000000000 ) ) ;
#74 = LINE ( 'NONE', #153, #278 ) ;
#75 = VECTOR ( 'NONE', #209, 1000.000000000000000 ) ;
#76 = EDGE_CURVE ( 'NONE', #5, #112, #52, .T. ) ;
#77 = DIRECTION ( 'NONE',  ( 0.000000000000000000, 0.000000000000000000, 1.000000000000000000 ) ) ;
#78 = DIRECTION ( 'NONE',  ( 0.000000000000000000, 0.000000000000000000, -1.000000000000000000 ) ) ;
#79 = DIRECTION ( 'NONE',  ( 1.000000000000000000, 0.000000000000000000, -0.000000000000000000 ) ) ;
#80 = LINE ( 'NONE', #59, #22 ) ;
#81 = CARTESIAN_POINT ( 'NONE',  ( 0.000000000000000000, 0.5000000000000035527, 500.0000000000000000 ) ) ;
#82 = STYLED_ITEM ( 'NONE', ( #38 ), #265 ) ;
#83 = VERTEX_POINT ( 'NONE', #73 ) ;
#84 = ORIENTED_EDGE ( 'NONE', *, *, #221, .T. ) ;
#85 =( NAMED_UNIT ( * ) PLANE_ANGLE_UNIT ( ) SI_UNIT ( $, .RADIAN. ) );
#86 = VERTEX_POINT ( 'NONE', #70 ) ;
#87 = DIRECTION ( 'NONE',  ( -0.000000000000000000, -0.000000000000000000, -1.000000000000000000 ) ) ;
#88 = VERTEX_POINT ( 'NONE', #236 ) ;
#89 = AXIS2_PLACEMENT_3D ( 'NONE', #210, #114, #28 ) ;
#90 = EDGE_CURVE ( 'NONE', #113, #165, #232, .T. ) ;
#91 = ORIENTED_EDGE ( 'NONE', *, *, #161, .F. ) ;
#92 = CARTESIAN_POINT ( 'NONE',  ( 1.500000000000002220, 1.500000000000000000, 500.0000000000000000 ) ) ;
#93 = CARTESIAN_POINT ( 'NONE',  ( 20.00000000000000000, 1.500000000000000000, 500.0000000000000000 ) ) ;
#94 = ADVANCED_FACE ( 'NONE', ( #143 ), #47, .F. ) ;
#95 = CARTESIAN_POINT ( 'NONE',  ( 0.000000000000000000, 20.00000000000000000, -500.0000000000000000 ) ) ;
#96 = LINE ( 'NONE', #280, #14 ) ;
#97 = PRODUCT_RELATED_PRODUCT_CATEGORY ( 'part', '', ( #121 ) ) ;
#98 =( LENGTH_UNIT ( ) NAMED_UNIT ( * ) SI_UNIT ( .MILLI., .METRE. ) );
#99 = VECTOR ( 'NONE', #145, 1000.000000000000000 ) ;
#100 = CARTESIAN_POINT ( 'NONE',  ( 1.500000000000000000, 20.00000000000000000, 500.0000000000000000 ) ) ;
#101 = PLANE ( 'NONE',  #223 ) ;
#102 = AXIS2_PLACEMENT_3D ( 'NONE', #24, #249, #267 ) ;
#103 = DIRECTION ( 'NONE',  ( -0.000000000000000000, -0.000000000000000000, -1.000000000000000000 ) ) ;
#104 = EDGE_CURVE ( 'NONE', #43, #113, #126, .T. ) ;
#105 = CARTESIAN_POINT ( 'NONE',  ( 0.4999999999999998890, 0.4999999999999998890, 500.0000000000000000 ) ) ;
#106 = ORIENTED_EDGE ( 'NONE', *, *, #154, .F. ) ;
#107 = AXIS2_PLACEMENT_3D ( 'NONE', #281, #33, #194 ) ;
#108 = ORIENTED_EDGE ( 'NONE', *, *, #161, .T. ) ;
#109 = DIRECTION ( 'NONE',  ( -1.000000000000000000, 0.000000000000000000, 0.000000000000000000 ) ) ;
#110 = EDGE_LOOP ( 'NONE', ( #62, #133, #27, #225 ) ) ;
#111 = CYLINDRICAL_SURFACE ( 'NONE', #159, 0.4999999999999998890 ) ;
#112 = VERTEX_POINT ( 'NONE', #216 ) ;
#113 = VERTEX_POINT ( 'NONE', #116 ) ;
#114 = DIRECTION ( 'NONE',  ( 0.000000000000000000, -1.000000000000000000, 0.000000000000000000 ) ) ;
#115 = ADVANCED_FACE ( 'NONE', ( #13 ), #117, .F. ) ;
#116 = CARTESIAN_POINT ( 'NONE',  ( 0.5000000000000033307, 0.000000000000000000, 500.0000000000000000 ) ) ;
#117 = PLANE ( 'NONE',  #1 ) ;
#118 = PLANE ( 'NONE',  #61 ) ;
#119 = APPLICATION_CONTEXT ( 'automotive_design' ) ;
#120 = DIRECTION ( 'NONE',  ( 1.000000000000000000, 0.000000000000000000, 0.000000000000000000 ) ) ;
#121 = PRODUCT ( 'L2020S1.5X \X2\041f0440043e04440438043b044c\X0\ \X2\0430043b044e043c0438043d043804350432044b0439\X0\, \X2\04430433043e043b043e043a\X0\ 20\X2\0445\X0\20\X2\0445\X0\1.5', 'L2020S1.5X \X2\041f0440043e04440438043b044c\X0\ \X2\0430043b044e043c0438043d043804350432044b0439\X0\, \X2\04430433043e043b043e043a\X0\ 20\X2\0445\X0\20\X2\0445\X0\1.5', '', ( #162 ) ) ;
#122 = DIRECTION ( 'NONE',  ( -0.000000000000000000, -0.000000000000000000, -1.000000000000000000 ) ) ;
#123 = CARTESIAN_POINT ( 'NONE',  ( 1.500000000000002220, 1.500000000000000000, -500.0000000000000000 ) ) ;
#124 = CARTESIAN_POINT ( 'NONE',  ( 20.00000000000000000, 0.000000000000000000, -500.0000000000000000 ) ) ;
#125 = DIRECTION ( 'NONE',  ( 1.000000000000000000, 0.000000000000000000, 0.000000000000000000 ) ) ;
#126 = CIRCLE ( 'NONE', #177, 0.4999999999999998890 ) ;
#127 = CARTESIAN_POINT ( 'NONE',  ( 0.000000000000000000, 0.5000000000000035527, -500.0000000000000000 ) ) ;
#128 = APPLICATION_PROTOCOL_DEFINITION ( 'draft international standard', 'automotive_design', 1998, #119 ) ;
#129 = EDGE_LOOP ( 'NONE', ( #268, #6, #23, #227 ) ) ;
#130 =( LENGTH_UNIT ( ) NAMED_UNIT ( * ) SI_UNIT ( .MILLI., .METRE. ) );
#131 = ORIENTED_EDGE ( 'NONE', *, *, #76, .F. ) ;
#132 = CIRCLE ( 'NONE', #107, 0.4999999999999998890 ) ;
#133 = ORIENTED_EDGE ( 'NONE', *, *, #186, .F. ) ;
#134 = DIRECTION ( 'NONE',  ( -0.000000000000000000, -0.000000000000000000, -1.000000000000000000 ) ) ;
#135 = EDGE_CURVE ( 'NONE', #86, #228, #211, .T. ) ;
#136 = ORIENTED_EDGE ( 'NONE', *, *, #273, .F. ) ;
#137 = MECHANICAL_DESIGN_GEOMETRIC_PRESENTATION_REPRESENTATION (  '', ( #82 ), #200 ) ;
#138 = ORIENTED_EDGE ( 'NONE', *, *, #203, .T. ) ;
#139 = CARTESIAN_POINT ( 'NONE',  ( 0.000000000000000000, 0.5000000000000035527, 500.0000000000000000 ) ) ;
#140 = VECTOR ( 'NONE', #49, 1000.000000000000000 ) ;
#141 = PRODUCT_DEFINITION_SHAPE ( 'NONE', 'NONE',  #40 ) ;
#142 = CARTESIAN_POINT ( 'NONE',  ( 0.000000000000000000, 20.00000000000000000, 500.0000000000000000 ) ) ;
#143 = FACE_OUTER_BOUND ( 'NONE', #46, .T. ) ;
#144 = DIRECTION ( 'NONE',  ( 0.000000000000000000, -0.000000000000000000, -1.000000000000000000 ) ) ;
#145 = DIRECTION ( 'NONE',  ( -1.000000000000000000, -0.000000000000000000, -0.000000000000000000 ) ) ;
#146 = DIRECTION ( 'NONE',  ( -1.000000000000000000, -0.000000000000000000, -0.000000000000000000 ) ) ;
#147 = VECTOR ( 'NONE', #87, 1000.000000000000000 ) ;
#148 = VECTOR ( 'NONE', #54, 1000.000000000000000 ) ;
#149 = CARTESIAN_POINT ( 'NONE',  ( 1.500000000000000000, 20.00000000000000000, -500.0000000000000000 ) ) ;
#150 = EDGE_CURVE ( 'NONE', #43, #228, #96, .T. ) ;
#151 = SURFACE_SIDE_STYLE ('',( #264 ) ) ;
#152 = DIRECTION ( 'NONE',  ( -1.000000000000000000, 0.000000000000000000, 0.000000000000000000 ) ) ;
#153 = CARTESIAN_POINT ( 'NONE',  ( 1.500000000000000000, 20.00000000000000000, 500.0000000000000000 ) ) ;
#154 = EDGE_CURVE ( 'NONE', #182, #86, #30, .T. ) ;
#155 = VECTOR ( 'NONE', #258, 1000.000000000000000 ) ;
#156 = VECTOR ( 'NONE', #37, 1000.000000000000000 ) ;
#157 = SHAPE_DEFINITION_REPRESENTATION ( #141, #173 ) ;
#158 = EDGE_LOOP ( 'NONE', ( #206, #69, #45, #272 ) ) ;
#159 = AXIS2_PLACEMENT_3D ( 'NONE', #181, #134, #109 ) ;
#160 = ORIENTED_EDGE ( 'NONE', *, *, #273, .T. ) ;
#161 = EDGE_CURVE ( 'NONE', #228, #251, #132, .T. ) ;
#162 = PRODUCT_CONTEXT ( 'NONE', #119, 'mechanical' ) ;
#163 = AXIS2_PLACEMENT_3D ( 'NONE', #81, #125, #78 ) ;
#164 = ORIENTED_EDGE ( 'NONE', *, *, #104, .T. ) ;
#165 = VERTEX_POINT ( 'NONE', #282 ) ;
#166 = PRESENTATION_LAYER_ASSIGNMENT (  '', '', ( #82 ) ) ;
#167 = LINE ( 'NONE', #277, #245 ) ;
#168 = EDGE_CURVE ( 'NONE', #183, #5, #74, .T. ) ;
#169 = FACE_OUTER_BOUND ( 'NONE', #110, .T. ) ;
#170 = ORIENTED_EDGE ( 'NONE', *, *, #76, .T. ) ;
#171 = CARTESIAN_POINT ( 'NONE',  ( 0.4999999999999998890, 0.4999999999999998890, 500.0000000000000000 ) ) ;
#172 = LINE ( 'NONE', #139, #155 ) ;
#173 = ADVANCED_BREP_SHAPE_REPRESENTATION ( 'L2020S1.5X \X2\041f0440043e04440438043b044c\X0\ \X2\0430043b044e043c0438043d043804350432044b0439\X0\, \X2\04430433043e043b043e043a\X0\ 20\X2\0445\X0\20\X2\0445\X0\1.5', ( #265, #102 ), #21 ) ;
#174 = FACE_OUTER_BOUND ( 'NONE', #253, .T. ) ;
#175 = LINE ( 'NONE', #124, #32 ) ;
#176 = EDGE_CURVE ( 'NONE', #68, #182, #39, .T. ) ;
#177 = AXIS2_PLACEMENT_3D ( 'NONE', #171, #29, #120 ) ;
#178 = DIRECTION ( 'NONE',  ( -0.000000000000000000, -0.000000000000000000, -1.000000000000000000 ) ) ;
#179 = DIRECTION ( 'NONE',  ( -1.172110456741085828E-16, 1.000000000000000000, -0.000000000000000000 ) ) ;
#180 = CARTESIAN_POINT ( 'NONE',  ( 0.5000000000000035527, 0.000000000000000000, -500.0000000000000000 ) ) ;
#181 = CARTESIAN_POINT ( 'NONE',  ( 0.4999999999999998890, 0.4999999999999998890, 500.0000000000000000 ) ) ;
#182 = VERTEX_POINT ( 'NONE', #149 ) ;
#183 = VERTEX_POINT ( 'NONE', #15 ) ;
#184 = ORIENTED_EDGE ( 'NONE', *, *, #150, .T. ) ;
#185 = EDGE_LOOP ( 'NONE', ( #106, #42, #2, #208, #252, #91, #64 ) ) ;
#186 = EDGE_CURVE ( 'NONE', #5, #182, #17, .T. ) ;
#187 = DIRECTION ( 'NONE',  ( 1.172110456741085828E-16, -1.000000000000000000, 0.000000000000000000 ) ) ;
#188 = CARTESIAN_POINT ( 'NONE',  ( 0.5000000000000033307, 0.000000000000000000, 500.0000000000000000 ) ) ;
#189 = VECTOR ( 'NONE', #179, 1000.000000000000000 ) ;
#190 = CARTESIAN_POINT ( 'NONE',  ( 0.000000000000000000, 0.5000000000000035527, -500.0000000000000000 ) ) ;
#191 = PRODUCT_DEFINITION_CONTEXT ( 'detailed design', #215, 'design' ) ;
#192 = DIRECTION ( 'NONE',  ( -1.000000000000000000, -0.000000000000000000, -0.000000000000000000 ) ) ;
#193 = EDGE_CURVE ( 'NONE', #165, #83, #80, .T. ) ;
#194 = DIRECTION ( 'NONE',  ( 1.000000000000000000, 0.000000000000000000, 0.000000000000000000 ) ) ;
#195 = DIRECTION ( 'NONE',  ( 1.000000000000000000, 0.000000000000000000, -0.000000000000000000 ) ) ;
#196 = CARTESIAN_POINT ( 'NONE',  ( 1.500000000000002220, 1.500000000000000000, 500.0000000000000000 ) ) ;
#197 = PLANE ( 'NONE',  #283 ) ;
#198 = VECTOR ( 'NONE', #122, 1000.000000000000000 ) ;
#199 = CARTESIAN_POINT ( 'NONE',  ( 20.00000000000000000, 1.500000000000000000, 500.0000000000000000 ) ) ;
#200 =( GEOMETRIC_REPRESENTATION_CONTEXT ( 3 ) GLOBAL_UNCERTAINTY_ASSIGNED_CONTEXT ( ( #213 ) ) GLOBAL_UNIT_ASSIGNED_CONTEXT ( ( #98, #4, #67 ) ) REPRESENTATION_CONTEXT ( 'NONE', 'WORKASPACE' ) );
#201 = VECTOR ( 'NONE', #10, 1000.000000000000000 ) ;
#202 = ORIENTED_EDGE ( 'NONE', *, *, #168, .T. ) ;
#203 = EDGE_CURVE ( 'NONE', #26, #183, #286, .T. ) ;
#204 = ORIENTED_EDGE ( 'NONE', *, *, #154, .T. ) ;
#205 = ORIENTED_EDGE ( 'NONE', *, *, #58, .F. ) ;
#206 = ORIENTED_EDGE ( 'NONE', *, *, #248, .T. ) ;
#207 = AXIS2_PLACEMENT_3D ( 'NONE', #255, #214, #187 ) ;
#208 = ORIENTED_EDGE ( 'NONE', *, *, #248, .F. ) ;
#209 = DIRECTION ( 'NONE',  ( -0.000000000000000000, -0.000000000000000000, -1.000000000000000000 ) ) ;
#210 = CARTESIAN_POINT ( 'NONE',  ( 0.000000000000000000, 20.00000000000000000, 500.0000000000000000 ) ) ;
#211 = LINE ( 'NONE', #190, #201 ) ;
#212 = ADVANCED_FACE ( 'NONE', ( #261 ), #197, .F. ) ;
#213 = UNCERTAINTY_MEASURE_WITH_UNIT (LENGTH_MEASURE( 1.000000000000000082E-05 ), #98, 'distance_accuracy_value', 'NONE');
#214 = DIRECTION ( 'NONE',  ( -1.000000000000000000, -1.172110456741085828E-16, 0.000000000000000000 ) ) ;
#215 = APPLICATION_CONTEXT ( 'automotive_design' ) ;
#216 = CARTESIAN_POINT ( 'NONE',  ( 0.000000000000000000, 20.00000000000000000, 500.0000000000000000 ) ) ;
#217 = CARTESIAN_POINT ( 'NONE',  ( 1.500000000000000000, 20.00000000000000000, -500.0000000000000000 ) ) ;
#218 = DIRECTION ( 'NONE',  ( 0.000000000000000000, 0.000000000000000000, 1.000000000000000000 ) ) ;
#219 = CARTESIAN_POINT ( 'NONE',  ( 0.5000000000000033307, 0.000000000000000000, -500.0000000000000000 ) ) ;
#220 = FACE_OUTER_BOUND ( 'NONE', #158, .T. ) ;
#221 = EDGE_CURVE ( 'NONE', #88, #68, #55, .T. ) ;
#222 = CLOSED_SHELL ( 'NONE', ( #94, #237, #279, #115, #226, #50, #12, #233, #212 ) ) ;
#223 = AXIS2_PLACEMENT_3D ( 'NONE', #105, #77, #195 ) ;
#224 = LINE ( 'NONE', #180, #19 ) ;
#225 = ORIENTED_EDGE ( 'NONE', *, *, #263, .T. ) ;
#226 = ADVANCED_FACE ( 'NONE', ( #220 ), #16, .F. ) ;
#227 = ORIENTED_EDGE ( 'NONE', *, *, #58, .T. ) ;
#228 = VERTEX_POINT ( 'NONE', #127 ) ;
#229 = ORIENTED_EDGE ( 'NONE', *, *, #263, .F. ) ;
#230 = ORIENTED_EDGE ( 'NONE', *, *, #104, .F. ) ;
#231 = ORIENTED_EDGE ( 'NONE', *, *, #186, .T. ) ;
#232 = LINE ( 'NONE', #34, #140 ) ;
#233 = ADVANCED_FACE ( 'NONE', ( #18 ), #101, .T. ) ;
#234 = DIRECTION ( 'NONE',  ( -0.000000000000000000, -0.000000000000000000, -1.000000000000000000 ) ) ;
#235 = CARTESIAN_POINT ( 'NONE',  ( 0.5000000000000035527, 0.000000000000000000, 500.0000000000000000 ) ) ;
#236 = CARTESIAN_POINT ( 'NONE',  ( 20.00000000000000000, 1.500000000000000000, -500.0000000000000000 ) ) ;
#237 = ADVANCED_FACE ( 'NONE', ( #174 ), #285, .F. ) ;
#238 = DIRECTION ( 'NONE',  ( 0.000000000000000000, 1.000000000000000000, 0.000000000000000000 ) ) ;
#239 = VECTOR ( 'NONE', #192, 1000.000000000000000 ) ;
#240 = CARTESIAN_POINT ( 'NONE',  ( 1.500000000000002220, 1.500000000000000000, 500.0000000000000000 ) ) ;
#241 = CARTESIAN_POINT ( 'NONE',  ( 20.00000000000000000, 0.000000000000000000, 500.0000000000000000 ) ) ;
#242 = EDGE_CURVE ( 'NONE', #251, #83, #224, .T. ) ;
#243 = DIRECTION ( 'NONE',  ( 1.000000000000000000, 0.000000000000000000, 0.000000000000000000 ) ) ;
#244 = FILL_AREA_STYLE_COLOUR ( '', #266 ) ;
#245 = VECTOR ( 'NONE', #254, 1000.000000000000000 ) ;
#246 = VECTOR ( 'NONE', #146, 1000.000000000000000 ) ;
#247 = ORIENTED_EDGE ( 'NONE', *, *, #90, .T. ) ;
#248 = EDGE_CURVE ( 'NONE', #83, #88, #175, .T. ) ;
#249 = DIRECTION ( 'NONE',  ( 0.000000000000000000, 0.000000000000000000, 1.000000000000000000 ) ) ;
#250 = EDGE_LOOP ( 'NONE', ( #170, #3, #164, #247, #63, #138, #202 ) ) ;
#251 = VERTEX_POINT ( 'NONE', #219 ) ;
#252 = ORIENTED_EDGE ( 'NONE', *, *, #242, .F. ) ;
#253 = EDGE_LOOP ( 'NONE', ( #25, #20, #275, #160 ) ) ;
#254 = DIRECTION ( 'NONE',  ( 0.000000000000000000, 1.000000000000000000, 0.000000000000000000 ) ) ;
#255 = CARTESIAN_POINT ( 'NONE',  ( 1.500000000000000000, 20.00000000000000000, 500.0000000000000000 ) ) ;
#256 = EDGE_CURVE ( 'NONE', #26, #88, #35, .T. ) ;
#257 = CARTESIAN_POINT ( 'NONE',  ( 1.500000000000002220, 1.500000000000000000, -500.0000000000000000 ) ) ;
#258 = DIRECTION ( 'NONE',  ( -0.000000000000000000, -1.000000000000000000, -0.000000000000000000 ) ) ;
#259 = PLANE ( 'NONE',  #207 ) ;
#260 = DIRECTION ( 'NONE',  ( -1.172110456741085828E-16, 1.000000000000000000, -0.000000000000000000 ) ) ;
#261 = FACE_OUTER_BOUND ( 'NONE', #185, .T. ) ;
#262 = LINE ( 'NONE', #274, #147 ) ;
#263 = EDGE_CURVE ( 'NONE', #183, #68, #287, .T. ) ;
#264 = SURFACE_STYLE_FILL_AREA ( #56 ) ;
#265 = MANIFOLD_SOLID_BREP ( '\X2\0411043e0431044b0448043a0430\X0\-\X2\0412044b0442044f043d04430442044c\X0\1', #222 ) ;
#266 = COLOUR_RGB ( '',0.5921568627450980449, 0.6196078431372549211, 0.6509803921568627638 ) ;
#267 = DIRECTION ( 'NONE',  ( 1.000000000000000000, 0.000000000000000000, 0.000000000000000000 ) ) ;
#268 = ORIENTED_EDGE ( 'NONE', *, *, #242, .T. ) ;
#269 = EDGE_LOOP ( 'NONE', ( #108, #205, #230, #184 ) ) ;
#270 = EDGE_LOOP ( 'NONE', ( #84, #229, #65, #44 ) ) ;
#271 =( NAMED_UNIT ( * ) SI_UNIT ( $, .STERADIAN. ) SOLID_ANGLE_UNIT ( ) );
#272 = ORIENTED_EDGE ( 'NONE', *, *, #193, .T. ) ;
#273 = EDGE_CURVE ( 'NONE', #112, #86, #262, .T. ) ;
#274 = CARTESIAN_POINT ( 'NONE',  ( 0.000000000000000000, 20.00000000000000000, 500.0000000000000000 ) ) ;
#275 = ORIENTED_EDGE ( 'NONE', *, *, #7, .F. ) ;
#276 = FACE_OUTER_BOUND ( 'NONE', #270, .T. ) ;
#277 = CARTESIAN_POINT ( 'NONE',  ( 20.00000000000000000, 0.000000000000000000, 500.0000000000000000 ) ) ;
#278 = VECTOR ( 'NONE', #260, 1000.000000000000000 ) ;
#279 = ADVANCED_FACE ( 'NONE', ( #41 ), #111, .T. ) ;
#280 = CARTESIAN_POINT ( 'NONE',  ( 0.000000000000000000, 0.5000000000000035527, 500.0000000000000000 ) ) ;
#281 = CARTESIAN_POINT ( 'NONE',  ( 0.4999999999999998890, 0.4999999999999998890, -500.0000000000000000 ) ) ;
#282 = CARTESIAN_POINT ( 'NONE',  ( 20.00000000000000000, 0.000000000000000000, 500.0000000000000000 ) ) ;
#283 = AXIS2_PLACEMENT_3D ( 'NONE', #36, #284, #79 ) ;
#284 = DIRECTION ( 'NONE',  ( 0.000000000000000000, 0.000000000000000000, 1.000000000000000000 ) ) ;
#285 = PLANE ( 'NONE',  #163 ) ;
#286 = LINE ( 'NONE', #240, #246 ) ;
#287 = LINE ( 'NONE', #196, #66 ) ;
#288 = AXIS2_PLACEMENT_3D ( 'NONE', #241, #152, #218 ) ;
ENDSEC;
END-ISO-10303-21;
