ISO-10303-21;
HEADER;
FILE_DESCRIPTION (( 'STEP AP214' ),
    '1' );
FILE_NAME ('L3030S1.2X Ïðîôèëü àëþìèíèåâûé, óãîëîê 30õ30õ1.2.STEP',
    '2025-11-18T10:31:51',
    ( '' ),
    ( '' ),
    'SwSTEP 2.0',
    'SolidWorks 2025',
    '' );
FILE_SCHEMA (( 'AUTOMOTIVE_DESIGN' ));
ENDSEC;

DATA;
#1 = FACE_OUTER_BOUND ( 'NONE', #245, .T. ) ;
#2 = ORIENTED_EDGE ( 'NONE', *, *, #54, .F. ) ;
#3 = CARTESIAN_POINT ( 'NONE',  ( 1.199999999999999734, 30.00000000000000000, 500.0000000000000000 ) ) ;
#4 = CARTESIAN_POINT ( 'NONE',  ( 0.000000000000000000, 30.00000000000000000, -500.0000000000000000 ) ) ;
#5 = AXIS2_PLACEMENT_3D ( 'NONE', #222, #286, #25 ) ;
#6 = CARTESIAN_POINT ( 'NONE',  ( 0.4999999999999998890, 0.4999999999999998890, -500.0000000000000000 ) ) ;
#7 = VERTEX_POINT ( 'NONE', #89 ) ;
#8 = AXIS2_PLACEMENT_3D ( 'NONE', #23, #112, #66 ) ;
#9 = DIRECTION ( 'NONE',  ( -0.000000000000000000, -0.000000000000000000, -1.000000000000000000 ) ) ;
#10 = ORIENTED_EDGE ( 'NONE', *, *, #87, .T. ) ;
#11 = PRODUCT_DEFINITION_CONTEXT ( 'detailed design', #119, 'design' ) ;
#12 = DIRECTION ( 'NONE',  ( -0.000000000000000000, -0.000000000000000000, -1.000000000000000000 ) ) ;
#13 = ORIENTED_EDGE ( 'NONE', *, *, #87, .F. ) ;
#14 = VERTEX_POINT ( 'NONE', #65 ) ;
#15 = FILL_AREA_STYLE_COLOUR ( '', #238 ) ;
#16 = ORIENTED_EDGE ( 'NONE', *, *, #244, .T. ) ;
#17 = AXIS2_PLACEMENT_3D ( 'NONE', #158, #42, #288 ) ;
#18 = DIRECTION ( 'NONE',  ( -0.000000000000000000, -1.000000000000000000, -0.000000000000000000 ) ) ;
#19 = FACE_OUTER_BOUND ( 'NONE', #263, .T. ) ;
#20 = CARTESIAN_POINT ( 'NONE',  ( 0.000000000000000000, 0.5000000000000035527, -500.0000000000000000 ) ) ;
#21 =( NAMED_UNIT ( * ) SI_UNIT ( $, .STERADIAN. ) SOLID_ANGLE_UNIT ( ) );
#22 = AXIS2_PLACEMENT_3D ( 'NONE', #120, #247, #69 ) ;
#23 = CARTESIAN_POINT ( 'NONE',  ( 0.4999999999999998890, 0.4999999999999998890, -500.0000000000000000 ) ) ;
#24 = ADVANCED_FACE ( 'NONE', ( #19 ), #61, .T. ) ;
#25 = DIRECTION ( 'NONE',  ( 0.000000000000000000, -0.000000000000000000, -1.000000000000000000 ) ) ;
#26 = LINE ( 'NONE', #187, #99 ) ;
#27 = ADVANCED_FACE ( 'NONE', ( #227 ), #223, .F. ) ;
#28 = VECTOR ( 'NONE', #12, 1000.000000000000000 ) ;
#29 = FACE_OUTER_BOUND ( 'NONE', #85, .T. ) ;
#30 = PLANE ( 'NONE',  #22 ) ;
#31 = SURFACE_SIDE_STYLE ('',( #32 ) ) ;
#32 = SURFACE_STYLE_FILL_AREA ( #260 ) ;
#33 = VERTEX_POINT ( 'NONE', #20 ) ;
#34 = CARTESIAN_POINT ( 'NONE',  ( 1.199999999999999734, 30.00000000000000000, 500.0000000000000000 ) ) ;
#35 = ADVANCED_FACE ( 'NONE', ( #1 ), #116, .F. ) ;
#36 = ORIENTED_EDGE ( 'NONE', *, *, #154, .F. ) ;
#37 = DIRECTION ( 'NONE',  ( 1.000000000000000000, 0.000000000000000000, 0.000000000000000000 ) ) ;
#38 = EDGE_LOOP ( 'NONE', ( #203, #93, #13, #16 ) ) ;
#39 = CIRCLE ( 'NONE', #74, 0.4999999999999998890 ) ;
#40 = CARTESIAN_POINT ( 'NONE',  ( 0.000000000000000000, 30.00000000000000000, -500.0000000000000000 ) ) ;
#41 =( LENGTH_UNIT ( ) NAMED_UNIT ( * ) SI_UNIT ( .MILLI., .METRE. ) );
#42 = DIRECTION ( 'NONE',  ( 0.000000000000000000, 0.000000000000000000, 1.000000000000000000 ) ) ;
#43 = FACE_OUTER_BOUND ( 'NONE', #84, .T. ) ;
#44 = EDGE_CURVE ( 'NONE', #55, #33, #179, .T. ) ;
#45 = DIRECTION ( 'NONE',  ( -0.000000000000000000, -0.000000000000000000, -1.000000000000000000 ) ) ;
#46 = DIRECTION ( 'NONE',  ( -0.000000000000000000, -0.000000000000000000, -1.000000000000000000 ) ) ;
#47 = DIRECTION ( 'NONE',  ( -0.000000000000000000, 1.000000000000000000, -0.000000000000000000 ) ) ;
#48 = PRESENTATION_LAYER_ASSIGNMENT (  '', '', ( #186 ) ) ;
#49 = CARTESIAN_POINT ( 'NONE',  ( 0.5000000000000033307, 0.000000000000000000, 500.0000000000000000 ) ) ;
#50 = EDGE_LOOP ( 'NONE', ( #145, #176, #284, #140 ) ) ;
#51 = EDGE_CURVE ( 'NONE', #219, #97, #110, .T. ) ;
#52 =( GEOMETRIC_REPRESENTATION_CONTEXT ( 3 ) GLOBAL_UNCERTAINTY_ASSIGNED_CONTEXT ( ( #104 ) ) GLOBAL_UNIT_ASSIGNED_CONTEXT ( ( #41, #156, #21 ) ) REPRESENTATION_CONTEXT ( 'NONE', 'WORKASPACE' ) );
#53 = VERTEX_POINT ( 'NONE', #201 ) ;
#54 = EDGE_CURVE ( 'NONE', #274, #219, #153, .T. ) ;
#55 = VERTEX_POINT ( 'NONE', #40 ) ;
#56 = FACE_OUTER_BOUND ( 'NONE', #50, .T. ) ;
#57 = ORIENTED_EDGE ( 'NONE', *, *, #107, .T. ) ;
#58 = VECTOR ( 'NONE', #46, 1000.000000000000000 ) ;
#59 = DIRECTION ( 'NONE',  ( 0.000000000000000000, -0.000000000000000000, 1.000000000000000000 ) ) ;
#60 = ORIENTED_EDGE ( 'NONE', *, *, #206, .T. ) ;
#61 = PLANE ( 'NONE',  #17 ) ;
#62 = CARTESIAN_POINT ( 'NONE',  ( 0.000000000000000000, 0.5000000000000035527, -500.0000000000000000 ) ) ;
#63 = ORIENTED_EDGE ( 'NONE', *, *, #51, .F. ) ;
#64 = APPLICATION_PROTOCOL_DEFINITION ( 'draft international standard', 'automotive_design', 1998, #68 ) ;
#65 = CARTESIAN_POINT ( 'NONE',  ( 30.00000000000000000, 0.000000000000000000, 500.0000000000000000 ) ) ;
#66 = DIRECTION ( 'NONE',  ( 1.000000000000000000, 0.000000000000000000, -0.000000000000000000 ) ) ;
#67 = DIRECTION ( 'NONE',  ( -1.000000000000000000, -0.000000000000000000, -0.000000000000000000 ) ) ;
#68 = APPLICATION_CONTEXT ( 'automotive_design' ) ;
#69 = DIRECTION ( 'NONE',  ( 0.000000000000000000, 0.000000000000000000, 1.000000000000000000 ) ) ;
#70 = CARTESIAN_POINT ( 'NONE',  ( 1.199999999999999734, 1.199999999999999734, 500.0000000000000000 ) ) ;
#71 = VECTOR ( 'NONE', #9, 1000.000000000000000 ) ;
#72 = ORIENTED_EDGE ( 'NONE', *, *, #270, .F. ) ;
#73 = PLANE ( 'NONE',  #160 ) ;
#74 = AXIS2_PLACEMENT_3D ( 'NONE', #122, #273, #228 ) ;
#75 = ORIENTED_EDGE ( 'NONE', *, *, #54, .T. ) ;
#76 = ADVANCED_FACE ( 'NONE', ( #43 ), #86, .F. ) ;
#77 = DIRECTION ( 'NONE',  ( -1.000000000000000000, -0.000000000000000000, -0.000000000000000000 ) ) ;
#78 = ORIENTED_EDGE ( 'NONE', *, *, #180, .T. ) ;
#79 = DIRECTION ( 'NONE',  ( -0.000000000000000000, -1.000000000000000000, -0.000000000000000000 ) ) ;
#80 = VERTEX_POINT ( 'NONE', #49 ) ;
#81 = LINE ( 'NONE', #175, #128 ) ;
#82 = CLOSED_SHELL ( 'NONE', ( #76, #261, #111, #235, #215, #27, #143, #24, #35 ) ) ;
#83 = EDGE_CURVE ( 'NONE', #7, #97, #91, .T. ) ;
#84 = EDGE_LOOP ( 'NONE', ( #78, #36, #198, #172 ) ) ;
#85 = EDGE_LOOP ( 'NONE', ( #57, #72, #96, #279 ) ) ;
#86 = PLANE ( 'NONE',  #237 ) ;
#87 = EDGE_CURVE ( 'NONE', #14, #53, #182, .T. ) ;
#88 = PRODUCT_DEFINITION_FORMATION_WITH_SPECIFIED_SOURCE ( 'ANY', '', #161, .NOT_KNOWN. ) ;
#89 = CARTESIAN_POINT ( 'NONE',  ( 1.199999999999999734, 1.199999999999999734, -500.0000000000000000 ) ) ;
#90 = ORIENTED_EDGE ( 'NONE', *, *, #224, .T. ) ;
#91 = LINE ( 'NONE', #138, #169 ) ;
#92 = CARTESIAN_POINT ( 'NONE',  ( 0.000000000000000000, 30.00000000000000000, 500.0000000000000000 ) ) ;
#93 = ORIENTED_EDGE ( 'NONE', *, *, #159, .F. ) ;
#94 = DIRECTION ( 'NONE',  ( -1.000000000000000000, -0.000000000000000000, -0.000000000000000000 ) ) ;
#95 = AXIS2_PLACEMENT_3D ( 'NONE', #173, #196, #147 ) ;
#96 = ORIENTED_EDGE ( 'NONE', *, *, #194, .F. ) ;
#97 = VERTEX_POINT ( 'NONE', #136 ) ;
#98 = CARTESIAN_POINT ( 'NONE',  ( 0.000000000000000000, 0.5000000000000035527, 500.0000000000000000 ) ) ;
#99 = VECTOR ( 'NONE', #165, 1000.000000000000000 ) ;
#100 = ORIENTED_EDGE ( 'NONE', *, *, #132, .T. ) ;
#101 = PRODUCT_RELATED_PRODUCT_CATEGORY ( 'part', '', ( #161 ) ) ;
#102 = PLANE ( 'NONE',  #95 ) ;
#103 = ORIENTED_EDGE ( 'NONE', *, *, #117, .T. ) ;
#104 = UNCERTAINTY_MEASURE_WITH_UNIT (LENGTH_MEASURE( 1.000000000000000082E-05 ), #41, 'distance_accuracy_value', 'NONE');
#105 = CARTESIAN_POINT ( 'NONE',  ( 30.00000000000000000, 1.199999999999999734, -500.0000000000000000 ) ) ;
#106 = ORIENTED_EDGE ( 'NONE', *, *, #117, .F. ) ;
#107 = EDGE_CURVE ( 'NONE', #33, #282, #124, .T. ) ;
#108 = ORIENTED_EDGE ( 'NONE', *, *, #206, .F. ) ;
#109 = DIRECTION ( 'NONE',  ( 0.000000000000000000, 0.000000000000000000, 1.000000000000000000 ) ) ;
#110 = LINE ( 'NONE', #3, #217 ) ;
#111 = ADVANCED_FACE ( 'NONE', ( #29 ), #232, .T. ) ;
#112 = DIRECTION ( 'NONE',  ( 0.000000000000000000, 0.000000000000000000, 1.000000000000000000 ) ) ;
#113 = VECTOR ( 'NONE', #212, 1000.000000000000000 ) ;
#114 = CARTESIAN_POINT ( 'NONE',  ( 0.000000000000000000, 0.000000000000000000, 0.000000000000000000 ) ) ;
#115 = DIRECTION ( 'NONE',  ( 0.000000000000000000, -0.000000000000000000, -1.000000000000000000 ) ) ;
#116 = PLANE ( 'NONE',  #8 ) ;
#117 = EDGE_CURVE ( 'NONE', #282, #258, #139, .T. ) ;
#118 = LINE ( 'NONE', #166, #226 ) ;
#119 = APPLICATION_CONTEXT ( 'automotive_design' ) ;
#120 = CARTESIAN_POINT ( 'NONE',  ( 1.199999999999999734, 30.00000000000000000, 500.0000000000000000 ) ) ;
#121 = PRODUCT_DEFINITION_SHAPE ( 'NONE', 'NONE',  #248 ) ;
#122 = CARTESIAN_POINT ( 'NONE',  ( 0.4999999999999998890, 0.4999999999999998890, 500.0000000000000000 ) ) ;
#123 = DIRECTION ( 'NONE',  ( 0.000000000000000000, 1.000000000000000000, 0.000000000000000000 ) ) ;
#124 = CIRCLE ( 'NONE', #137, 0.4999999999999998890 ) ;
#125 = LINE ( 'NONE', #98, #178 ) ;
#126 = ORIENTED_EDGE ( 'NONE', *, *, #189, .F. ) ;
#127 =( NAMED_UNIT ( * ) PLANE_ANGLE_UNIT ( ) SI_UNIT ( $, .RADIAN. ) );
#128 = VECTOR ( 'NONE', #130, 1000.000000000000000 ) ;
#129 = ORIENTED_EDGE ( 'NONE', *, *, #189, .T. ) ;
#130 = DIRECTION ( 'NONE',  ( -0.000000000000000000, -0.000000000000000000, -1.000000000000000000 ) ) ;
#131 = VERTEX_POINT ( 'NONE', #269 ) ;
#132 = EDGE_CURVE ( 'NONE', #219, #131, #118, .T. ) ;
#133 = DIRECTION ( 'NONE',  ( -0.000000000000000000, -0.000000000000000000, -1.000000000000000000 ) ) ;
#134 = VECTOR ( 'NONE', #183, 1000.000000000000000 ) ;
#135 = LINE ( 'NONE', #162, #71 ) ;
#136 = CARTESIAN_POINT ( 'NONE',  ( 1.199999999999999734, 30.00000000000000000, -500.0000000000000000 ) ) ;
#137 = AXIS2_PLACEMENT_3D ( 'NONE', #6, #233, #250 ) ;
#138 = CARTESIAN_POINT ( 'NONE',  ( 1.199999999999999734, 30.00000000000000000, -500.0000000000000000 ) ) ;
#139 = LINE ( 'NONE', #190, #277 ) ;
#140 = ORIENTED_EDGE ( 'NONE', *, *, #154, .T. ) ;
#141 = LINE ( 'NONE', #92, #113 ) ;
#142 = AXIS2_PLACEMENT_3D ( 'NONE', #146, #240, #59 ) ;
#143 = ADVANCED_FACE ( 'NONE', ( #275 ), #30, .F. ) ;
#144 = DIRECTION ( 'NONE',  ( 0.000000000000000000, 0.000000000000000000, 1.000000000000000000 ) ) ;
#145 = ORIENTED_EDGE ( 'NONE', *, *, #44, .T. ) ;
#146 = CARTESIAN_POINT ( 'NONE',  ( 0.5000000000000035527, 0.000000000000000000, 500.0000000000000000 ) ) ;
#147 = DIRECTION ( 'NONE',  ( 0.000000000000000000, 0.000000000000000000, -1.000000000000000000 ) ) ;
#148 = EDGE_LOOP ( 'NONE', ( #129, #108, #272, #213 ) ) ;
#149 = LINE ( 'NONE', #197, #231 ) ;
#150 = ORIENTED_EDGE ( 'NONE', *, *, #83, .T. ) ;
#151 = ORIENTED_EDGE ( 'NONE', *, *, #229, .T. ) ;
#152 = SHAPE_DEFINITION_REPRESENTATION ( #121, #249 ) ;
#153 = LINE ( 'NONE', #157, #246 ) ;
#154 = EDGE_CURVE ( 'NONE', #131, #55, #141, .T. ) ;
#155 = CARTESIAN_POINT ( 'NONE',  ( 1.199999999999999734, 1.199999999999999734, 500.0000000000000000 ) ) ;
#156 =( NAMED_UNIT ( * ) PLANE_ANGLE_UNIT ( ) SI_UNIT ( $, .RADIAN. ) );
#157 = CARTESIAN_POINT ( 'NONE',  ( 1.199999999999999734, 30.00000000000000000, 500.0000000000000000 ) ) ;
#158 = CARTESIAN_POINT ( 'NONE',  ( 0.4999999999999998890, 0.4999999999999998890, 500.0000000000000000 ) ) ;
#159 = EDGE_CURVE ( 'NONE', #53, #262, #268, .T. ) ;
#160 = AXIS2_PLACEMENT_3D ( 'NONE', #167, #254, #144 ) ;
#161 = PRODUCT ( 'L3030S1.2X \X2\041f0440043e04440438043b044c\X0\ \X2\0430043b044e043c0438043d043804350432044b0439\X0\, \X2\04430433043e043b043e043a\X0\ 30\X2\0445\X0\30\X2\0445\X0\1.2', 'L3030S1.2X \X2\041f0440043e04440438043b044c\X0\ \X2\0430043b044e043c0438043d043804350432044b0439\X0\, \X2\04430433043e043b043e043a\X0\ 30\X2\0445\X0\30\X2\0445\X0\1.2', '', ( #177 ) ) ;
#162 = CARTESIAN_POINT ( 'NONE',  ( 0.000000000000000000, 0.5000000000000035527, 500.0000000000000000 ) ) ;
#163 = EDGE_CURVE ( 'NONE', #258, #262, #184, .T. ) ;
#164 = CARTESIAN_POINT ( 'NONE',  ( 30.00000000000000000, 0.000000000000000000, 500.0000000000000000 ) ) ;
#165 = DIRECTION ( 'NONE',  ( -1.000000000000000000, -0.000000000000000000, -0.000000000000000000 ) ) ;
#166 = CARTESIAN_POINT ( 'NONE',  ( 0.000000000000000000, 30.00000000000000000, 500.0000000000000000 ) ) ;
#167 = CARTESIAN_POINT ( 'NONE',  ( 30.00000000000000000, 0.000000000000000000, 500.0000000000000000 ) ) ;
#168 = EDGE_CURVE ( 'NONE', #216, #33, #135, .T. ) ;
#169 = VECTOR ( 'NONE', #47, 1000.000000000000000 ) ;
#170 = EDGE_LOOP ( 'NONE', ( #103, #280, #241, #234 ) ) ;
#171 = FACE_OUTER_BOUND ( 'NONE', #170, .T. ) ;
#172 = ORIENTED_EDGE ( 'NONE', *, *, #51, .T. ) ;
#173 = CARTESIAN_POINT ( 'NONE',  ( 0.000000000000000000, 0.5000000000000035527, 500.0000000000000000 ) ) ;
#174 = ORIENTED_EDGE ( 'NONE', *, *, #83, .F. ) ;
#175 = CARTESIAN_POINT ( 'NONE',  ( 0.5000000000000033307, 0.000000000000000000, 500.0000000000000000 ) ) ;
#176 = ORIENTED_EDGE ( 'NONE', *, *, #168, .F. ) ;
#177 = PRODUCT_CONTEXT ( 'NONE', #68, 'mechanical' ) ;
#178 = VECTOR ( 'NONE', #79, 1000.000000000000000 ) ;
#179 = LINE ( 'NONE', #62, #259 ) ;
#180 = EDGE_CURVE ( 'NONE', #97, #55, #230, .T. ) ;
#181 = VECTOR ( 'NONE', #77, 1000.000000000000000 ) ;
#182 = LINE ( 'NONE', #164, #134 ) ;
#183 = DIRECTION ( 'NONE',  ( 0.000000000000000000, 1.000000000000000000, 0.000000000000000000 ) ) ;
#184 = LINE ( 'NONE', #271, #205 ) ;
#185 = ORIENTED_EDGE ( 'NONE', *, *, #264, .T. ) ;
#186 = STYLED_ITEM ( 'NONE', ( #214 ), #209 ) ;
#187 = CARTESIAN_POINT ( 'NONE',  ( 1.199999999999999734, 1.199999999999999734, -500.0000000000000000 ) ) ;
#188 = ORIENTED_EDGE ( 'NONE', *, *, #163, .F. ) ;
#189 = EDGE_CURVE ( 'NONE', #262, #7, #26, .T. ) ;
#190 = CARTESIAN_POINT ( 'NONE',  ( 0.5000000000000035527, 0.000000000000000000, -500.0000000000000000 ) ) ;
#191 =( GEOMETRIC_REPRESENTATION_CONTEXT ( 3 ) GLOBAL_UNCERTAINTY_ASSIGNED_CONTEXT ( ( #195 ) ) GLOBAL_UNIT_ASSIGNED_CONTEXT ( ( #253, #127, #199 ) ) REPRESENTATION_CONTEXT ( 'NONE', 'WORKASPACE' ) );
#192 = FACE_OUTER_BOUND ( 'NONE', #38, .T. ) ;
#193 = ORIENTED_EDGE ( 'NONE', *, *, #180, .F. ) ;
#194 = EDGE_CURVE ( 'NONE', #216, #80, #39, .T. ) ;
#195 = UNCERTAINTY_MEASURE_WITH_UNIT (LENGTH_MEASURE( 1.000000000000000082E-05 ), #253, 'distance_accuracy_value', 'NONE');
#196 = DIRECTION ( 'NONE',  ( 1.000000000000000000, 0.000000000000000000, 0.000000000000000000 ) ) ;
#197 = CARTESIAN_POINT ( 'NONE',  ( 0.5000000000000035527, 0.000000000000000000, 500.0000000000000000 ) ) ;
#198 = ORIENTED_EDGE ( 'NONE', *, *, #132, .F. ) ;
#199 =( NAMED_UNIT ( * ) SI_UNIT ( $, .STERADIAN. ) SOLID_ANGLE_UNIT ( ) );
#200 = CARTESIAN_POINT ( 'NONE',  ( 0.5000000000000033307, 0.000000000000000000, -500.0000000000000000 ) ) ;
#201 = CARTESIAN_POINT ( 'NONE',  ( 30.00000000000000000, 1.199999999999999734, 500.0000000000000000 ) ) ;
#202 = VECTOR ( 'NONE', #94, 1000.000000000000000 ) ;
#203 = ORIENTED_EDGE ( 'NONE', *, *, #163, .T. ) ;
#204 = DIRECTION ( 'NONE',  ( 1.000000000000000000, 0.000000000000000000, 0.000000000000000000 ) ) ;
#205 = VECTOR ( 'NONE', #123, 1000.000000000000000 ) ;
#206 = EDGE_CURVE ( 'NONE', #274, #7, #252, .T. ) ;
#207 = CARTESIAN_POINT ( 'NONE',  ( 0.4999999999999998890, 0.4999999999999998890, 500.0000000000000000 ) ) ;
#208 = ORIENTED_EDGE ( 'NONE', *, *, #194, .T. ) ;
#209 = MANIFOLD_SOLID_BREP ( '\X2\0411043e0431044b0448043a0430\X0\-\X2\0412044b0442044f043d04430442044c\X0\1', #82 ) ;
#210 = DIRECTION ( 'NONE',  ( -1.000000000000000000, 0.000000000000000000, 0.000000000000000000 ) ) ;
#211 = AXIS2_PLACEMENT_3D ( 'NONE', #114, #109, #285 ) ;
#212 = DIRECTION ( 'NONE',  ( -0.000000000000000000, -0.000000000000000000, -1.000000000000000000 ) ) ;
#213 = ORIENTED_EDGE ( 'NONE', *, *, #159, .T. ) ;
#214 = PRESENTATION_STYLE_ASSIGNMENT (( #281 ) ) ;
#215 = ADVANCED_FACE ( 'NONE', ( #192 ), #73, .F. ) ;
#216 = VERTEX_POINT ( 'NONE', #239 ) ;
#217 = VECTOR ( 'NONE', #133, 1000.000000000000000 ) ;
#218 = LINE ( 'NONE', #220, #28 ) ;
#219 = VERTEX_POINT ( 'NONE', #34 ) ;
#220 = CARTESIAN_POINT ( 'NONE',  ( 30.00000000000000000, 0.000000000000000000, 500.0000000000000000 ) ) ;
#221 = LINE ( 'NONE', #278, #181 ) ;
#222 = CARTESIAN_POINT ( 'NONE',  ( 1.199999999999999734, 1.199999999999999734, 500.0000000000000000 ) ) ;
#223 = PLANE ( 'NONE',  #5 ) ;
#224 = EDGE_CURVE ( 'NONE', #131, #216, #125, .T. ) ;
#225 = CARTESIAN_POINT ( 'NONE',  ( 0.000000000000000000, 30.00000000000000000, 500.0000000000000000 ) ) ;
#226 = VECTOR ( 'NONE', #67, 1000.000000000000000 ) ;
#227 = FACE_OUTER_BOUND ( 'NONE', #148, .T. ) ;
#228 = DIRECTION ( 'NONE',  ( 1.000000000000000000, 0.000000000000000000, 0.000000000000000000 ) ) ;
#229 = EDGE_CURVE ( 'NONE', #53, #274, #221, .T. ) ;
#230 = LINE ( 'NONE', #4, #202 ) ;
#231 = VECTOR ( 'NONE', #37, 1000.000000000000000 ) ;
#232 = CYLINDRICAL_SURFACE ( 'NONE', #283, 0.4999999999999998890 ) ;
#233 = DIRECTION ( 'NONE',  ( 0.000000000000000000, 0.000000000000000000, 1.000000000000000000 ) ) ;
#234 = ORIENTED_EDGE ( 'NONE', *, *, #270, .T. ) ;
#235 = ADVANCED_FACE ( 'NONE', ( #171 ), #255, .F. ) ;
#236 = CARTESIAN_POINT ( 'NONE',  ( 30.00000000000000000, 1.199999999999999734, 500.0000000000000000 ) ) ;
#237 = AXIS2_PLACEMENT_3D ( 'NONE', #225, #265, #115 ) ;
#238 = COLOUR_RGB ( '',0.5921568627450980449, 0.6196078431372549211, 0.6509803921568627638 ) ;
#239 = CARTESIAN_POINT ( 'NONE',  ( 0.000000000000000000, 0.5000000000000035527, 500.0000000000000000 ) ) ;
#240 = DIRECTION ( 'NONE',  ( 0.000000000000000000, 1.000000000000000000, 0.000000000000000000 ) ) ;
#241 = ORIENTED_EDGE ( 'NONE', *, *, #264, .F. ) ;
#242 = MECHANICAL_DESIGN_GEOMETRIC_PRESENTATION_REPRESENTATION (  '', ( #186 ), #191 ) ;
#243 = DIRECTION ( 'NONE',  ( -0.000000000000000000, 1.000000000000000000, -0.000000000000000000 ) ) ;
#244 = EDGE_CURVE ( 'NONE', #14, #258, #218, .T. ) ;
#245 = EDGE_LOOP ( 'NONE', ( #193, #174, #126, #188, #106, #267, #256 ) ) ;
#246 = VECTOR ( 'NONE', #243, 1000.000000000000000 ) ;
#247 = DIRECTION ( 'NONE',  ( -1.000000000000000000, 0.000000000000000000, 0.000000000000000000 ) ) ;
#248 = PRODUCT_DEFINITION ( 'UNKNOWN', '', #88, #11 ) ;
#249 = ADVANCED_BREP_SHAPE_REPRESENTATION ( 'L3030S1.2X \X2\041f0440043e04440438043b044c\X0\ \X2\0430043b044e043c0438043d043804350432044b0439\X0\, \X2\04430433043e043b043e043a\X0\ 30\X2\0445\X0\30\X2\0445\X0\1.2', ( #209, #211 ), #52 ) ;
#250 = DIRECTION ( 'NONE',  ( 1.000000000000000000, 0.000000000000000000, 0.000000000000000000 ) ) ;
#251 = VECTOR ( 'NONE', #276, 1000.000000000000000 ) ;
#252 = LINE ( 'NONE', #70, #251 ) ;
#253 =( LENGTH_UNIT ( ) NAMED_UNIT ( * ) SI_UNIT ( .MILLI., .METRE. ) );
#254 = DIRECTION ( 'NONE',  ( -1.000000000000000000, 0.000000000000000000, 0.000000000000000000 ) ) ;
#255 = PLANE ( 'NONE',  #142 ) ;
#256 = ORIENTED_EDGE ( 'NONE', *, *, #44, .F. ) ;
#257 = CARTESIAN_POINT ( 'NONE',  ( 30.00000000000000000, 0.000000000000000000, -500.0000000000000000 ) ) ;
#258 = VERTEX_POINT ( 'NONE', #257 ) ;
#259 = VECTOR ( 'NONE', #18, 1000.000000000000000 ) ;
#260 = FILL_AREA_STYLE ('',( #15 ) ) ;
#261 = ADVANCED_FACE ( 'NONE', ( #56 ), #102, .F. ) ;
#262 = VERTEX_POINT ( 'NONE', #105 ) ;
#263 = EDGE_LOOP ( 'NONE', ( #100, #90, #208, #185, #10, #151, #75 ) ) ;
#264 = EDGE_CURVE ( 'NONE', #80, #14, #149, .T. ) ;
#265 = DIRECTION ( 'NONE',  ( 0.000000000000000000, -1.000000000000000000, 0.000000000000000000 ) ) ;
#266 = EDGE_LOOP ( 'NONE', ( #150, #63, #2, #60 ) ) ;
#267 = ORIENTED_EDGE ( 'NONE', *, *, #107, .F. ) ;
#268 = LINE ( 'NONE', #236, #58 ) ;
#269 = CARTESIAN_POINT ( 'NONE',  ( 0.000000000000000000, 30.00000000000000000, 500.0000000000000000 ) ) ;
#270 = EDGE_CURVE ( 'NONE', #80, #282, #81, .T. ) ;
#271 = CARTESIAN_POINT ( 'NONE',  ( 30.00000000000000000, 0.000000000000000000, -500.0000000000000000 ) ) ;
#272 = ORIENTED_EDGE ( 'NONE', *, *, #229, .F. ) ;
#273 = DIRECTION ( 'NONE',  ( 0.000000000000000000, 0.000000000000000000, 1.000000000000000000 ) ) ;
#274 = VERTEX_POINT ( 'NONE', #155 ) ;
#275 = FACE_OUTER_BOUND ( 'NONE', #266, .T. ) ;
#276 = DIRECTION ( 'NONE',  ( -0.000000000000000000, -0.000000000000000000, -1.000000000000000000 ) ) ;
#277 = VECTOR ( 'NONE', #204, 1000.000000000000000 ) ;
#278 = CARTESIAN_POINT ( 'NONE',  ( 1.199999999999999734, 1.199999999999999734, 500.0000000000000000 ) ) ;
#279 = ORIENTED_EDGE ( 'NONE', *, *, #168, .T. ) ;
#280 = ORIENTED_EDGE ( 'NONE', *, *, #244, .F. ) ;
#281 = SURFACE_STYLE_USAGE ( .BOTH. , #31 ) ;
#282 = VERTEX_POINT ( 'NONE', #200 ) ;
#283 = AXIS2_PLACEMENT_3D ( 'NONE', #207, #45, #210 ) ;
#284 = ORIENTED_EDGE ( 'NONE', *, *, #224, .F. ) ;
#285 = DIRECTION ( 'NONE',  ( 1.000000000000000000, 0.000000000000000000, 0.000000000000000000 ) ) ;
#286 = DIRECTION ( 'NONE',  ( 0.000000000000000000, -1.000000000000000000, 0.000000000000000000 ) ) ;
#287 = APPLICATION_PROTOCOL_DEFINITION ( 'draft international standard', 'automotive_design', 1998, #119 ) ;
#288 = DIRECTION ( 'NONE',  ( 1.000000000000000000, 0.000000000000000000, -0.000000000000000000 ) ) ;
ENDSEC;
END-ISO-10303-21;
