ISO-10303-21;
HEADER;
FILE_DESCRIPTION (( 'STEP AP214' ),
    '1' );
FILE_NAME ('A218 Òðàïåöåèäàëüíûé âèíò 8õ540 ìì, 4-õ çàõîäíûé, øàã 2 ìì.STEP',
    '2019-09-11T09:50:31',
    ( 'Windows User' ),
    ( '' ),
    'SwSTEP 2.0',
    'SolidWorks 2018',
    '' );
FILE_SCHEMA (( 'AUTOMOTIVE_DESIGN' ));
ENDSEC;

DATA;
#1 = EDGE_CURVE ( 'NONE', #74, #36, #8, .T. ) ;
#2 = CARTESIAN_POINT ( 'NONE',  ( 540.0000000000000000, 0.0000000000000000000, 4.000000000000000000 ) ) ;
#3 = PRODUCT_DEFINITION ( 'UNKNOWN', '', #51, #63 ) ;
#4 = ORIENTED_EDGE ( 'NONE', *, *, #146, .T. ) ;
#5 = FACE_OUTER_BOUND ( 'NONE', #131, .T. ) ;
#6 = CARTESIAN_POINT ( 'NONE',  ( 540.0000000000000000, 0.0000000000000000000, 0.0000000000000000000 ) ) ;
#7 = UNCERTAINTY_MEASURE_WITH_UNIT (LENGTH_MEASURE( 1.000000000000000082E-05 ), #159, 'distance_accuracy_value', 'NONE');
#8 = CIRCLE ( 'NONE', #150, 4.000000000000000000 ) ;
#9 = FILL_AREA_STYLE ('',( #142 ) ) ;
#10 = AXIS2_PLACEMENT_3D ( 'NONE', #144, #129, #162 ) ;
#11 = FILL_AREA_STYLE_COLOUR ( '', #106 ) ;
#12 = SURFACE_STYLE_FILL_AREA ( #161 ) ;
#13 = DIRECTION ( 'NONE',  ( 1.000000000000000000, 0.0000000000000000000, 0.0000000000000000000 ) ) ;
#14 = CARTESIAN_POINT ( 'NONE',  ( 540.0000000000000000, 0.0000000000000000000, 0.0000000000000000000 ) ) ;
#15 = SURFACE_STYLE_USAGE ( .BOTH. , #42 ) ;
#16 = PRODUCT_RELATED_PRODUCT_CATEGORY ( 'part', '', ( #149 ) ) ;
#17 = ORIENTED_EDGE ( 'NONE', *, *, #81, .T. ) ;
#18 = CIRCLE ( 'NONE', #73, 4.000000000000000000 ) ;
#19 = CYLINDRICAL_SURFACE ( 'NONE', #33, 4.000000000000000000 ) ;
#20 =( GEOMETRIC_REPRESENTATION_CONTEXT ( 3 ) GLOBAL_UNCERTAINTY_ASSIGNED_CONTEXT ( ( #7 ) ) GLOBAL_UNIT_ASSIGNED_CONTEXT ( ( #159, #94, #95 ) ) REPRESENTATION_CONTEXT ( 'NONE', 'WORKASPACE' ) );
#21 = FILL_AREA_STYLE ('',( #101 ) ) ;
#22 = ORIENTED_EDGE ( 'NONE', *, *, #124, .T. ) ;
#23 = DIRECTION ( 'NONE',  ( 0.0000000000000000000, 0.0000000000000000000, -1.000000000000000000 ) ) ;
#24 = DIRECTION ( 'NONE',  ( -1.000000000000000000, -0.0000000000000000000, -0.0000000000000000000 ) ) ;
#25 = DIRECTION ( 'NONE',  ( 0.0000000000000000000, 0.0000000000000000000, -1.000000000000000000 ) ) ;
#26 = LINE ( 'NONE', #27, #83 ) ;
#27 = CARTESIAN_POINT ( 'NONE',  ( 540.0000000000000000, 4.898587196589412829E-16, -4.000000000000000000 ) ) ;
#28 = PRODUCT_CONTEXT ( 'NONE', #58, 'mechanical' ) ;
#29 = CLOSED_SHELL ( 'NONE', ( #127, #52, #138, #88 ) ) ;
#30 = FILL_AREA_STYLE_COLOUR ( '', #169 ) ;
#31 = APPLICATION_PROTOCOL_DEFINITION ( 'draft international standard', 'automotive_design', 1998, #109 ) ;
#32 = ORIENTED_EDGE ( 'NONE', *, *, #146, .F. ) ;
#33 = AXIS2_PLACEMENT_3D ( 'NONE', #156, #40, #71 ) ;
#34 = EDGE_LOOP ( 'NONE', ( #53, #99, #17, #41 ) ) ;
#35 = STYLED_ITEM ( 'NONE', ( #121 ), #52 ) ;
#36 = VERTEX_POINT ( 'NONE', #54 ) ;
#37 = SURFACE_STYLE_USAGE ( .BOTH. , #112 ) ;
#38 = CARTESIAN_POINT ( 'NONE',  ( 540.0000000000000000, 0.0000000000000000000, 0.0000000000000000000 ) ) ;
#39 = ORIENTED_EDGE ( 'NONE', *, *, #81, .F. ) ;
#40 = DIRECTION ( 'NONE',  ( -1.000000000000000000, -0.0000000000000000000, -0.0000000000000000000 ) ) ;
#41 = ORIENTED_EDGE ( 'NONE', *, *, #60, .T. ) ;
#42 = SURFACE_SIDE_STYLE ('',( #12 ) ) ;
#43 = CARTESIAN_POINT ( 'NONE',  ( 0.0000000000000000000, 0.0000000000000000000, 0.0000000000000000000 ) ) ;
#44 = SURFACE_SIDE_STYLE ('',( #70 ) ) ;
#45 = UNCERTAINTY_MEASURE_WITH_UNIT (LENGTH_MEASURE( 1.000000000000000082E-05 ), #59, 'distance_accuracy_value', 'NONE');
#46 = STYLED_ITEM ( 'NONE', ( #130 ), #127 ) ;
#47 = ORIENTED_EDGE ( 'NONE', *, *, #124, .F. ) ;
#48 =( NAMED_UNIT ( * ) SI_UNIT ( $, .STERADIAN. ) SOLID_ANGLE_UNIT ( ) );
#49 =( GEOMETRIC_REPRESENTATION_CONTEXT ( 3 ) GLOBAL_UNCERTAINTY_ASSIGNED_CONTEXT ( ( #111 ) ) GLOBAL_UNIT_ASSIGNED_CONTEXT ( ( #75, #92, #48 ) ) REPRESENTATION_CONTEXT ( 'NONE', 'WORKASPACE' ) );
#50 = COLOUR_RGB ( '',0.7960784313725489669, 0.8235294117647058432, 0.9372549019607843146 ) ;
#51 = PRODUCT_DEFINITION_FORMATION_WITH_SPECIFIED_SOURCE ( 'ANY', '', #149, .NOT_KNOWN. ) ;
#52 = ADVANCED_FACE ( 'NONE', ( #145 ), #57, .T. ) ;
#53 = ORIENTED_EDGE ( 'NONE', *, *, #86, .F. ) ;
#54 = CARTESIAN_POINT ( 'NONE',  ( 540.0000000000000000, 4.898587196589412829E-16, -4.000000000000000000 ) ) ;
#55 = SHAPE_DEFINITION_REPRESENTATION ( #151, #64 ) ;
#56 = DIRECTION ( 'NONE',  ( 0.0000000000000000000, 0.0000000000000000000, -1.000000000000000000 ) ) ;
#57 = CYLINDRICAL_SURFACE ( 'NONE', #98, 4.000000000000000000 ) ;
#58 = APPLICATION_CONTEXT ( 'automotive_design' ) ;
#59 =( LENGTH_UNIT ( ) NAMED_UNIT ( * ) SI_UNIT ( .MILLI., .METRE. ) );
#60 = EDGE_CURVE ( 'NONE', #62, #96, #18, .T. ) ;
#61 = EDGE_LOOP ( 'NONE', ( #32, #136, #22, #39 ) ) ;
#62 = VERTEX_POINT ( 'NONE', #114 ) ;
#63 = PRODUCT_DEFINITION_CONTEXT ( 'detailed design', #109, 'design' ) ;
#64 = ADVANCED_BREP_SHAPE_REPRESENTATION ( 'A218 T¨ðÿõ¡õøôðû¹ývù òøýª 8¿540 üü, 4-¿ ÷ð¿þôývù, °ðó 2 üü', ( #107, #97 ), #20 ) ;
#65 = DIRECTION ( 'NONE',  ( 0.0000000000000000000, 0.0000000000000000000, -1.000000000000000000 ) ) ;
#66 =( NAMED_UNIT ( * ) SI_UNIT ( $, .STERADIAN. ) SOLID_ANGLE_UNIT ( ) );
#67 =( GEOMETRIC_REPRESENTATION_CONTEXT ( 3 ) GLOBAL_UNCERTAINTY_ASSIGNED_CONTEXT ( ( #123 ) ) GLOBAL_UNIT_ASSIGNED_CONTEXT ( ( #68, #91, #66 ) ) REPRESENTATION_CONTEXT ( 'NONE', 'WORKASPACE' ) );
#68 =( LENGTH_UNIT ( ) NAMED_UNIT ( * ) SI_UNIT ( .MILLI., .METRE. ) );
#69 = SURFACE_SIDE_STYLE ('',( #165 ) ) ;
#70 = SURFACE_STYLE_FILL_AREA ( #118 ) ;
#71 = DIRECTION ( 'NONE',  ( 0.0000000000000000000, 0.0000000000000000000, 1.000000000000000000 ) ) ;
#72 = APPLICATION_PROTOCOL_DEFINITION ( 'draft international standard', 'automotive_design', 1998, #58 ) ;
#73 = AXIS2_PLACEMENT_3D ( 'NONE', #80, #103, #23 ) ;
#74 = VERTEX_POINT ( 'NONE', #2 ) ;
#75 =( LENGTH_UNIT ( ) NAMED_UNIT ( * ) SI_UNIT ( .MILLI., .METRE. ) );
#76 = UNCERTAINTY_MEASURE_WITH_UNIT (LENGTH_MEASURE( 1.000000000000000082E-05 ), #113, 'distance_accuracy_value', 'NONE');
#77 = PRESENTATION_STYLE_ASSIGNMENT (( #119 ) ) ;
#78 = ORIENTED_EDGE ( 'NONE', *, *, #1, .T. ) ;
#79 =( NAMED_UNIT ( * ) SI_UNIT ( $, .STERADIAN. ) SOLID_ANGLE_UNIT ( ) );
#80 = CARTESIAN_POINT ( 'NONE',  ( 0.0000000000000000000, 0.0000000000000000000, 0.0000000000000000000 ) ) ;
#81 = EDGE_CURVE ( 'NONE', #74, #62, #85, .T. ) ;
#82 = PLANE ( 'NONE',  #132 ) ;
#83 = VECTOR ( 'NONE', #24, 1000.000000000000000 ) ;
#84 =( NAMED_UNIT ( * ) SI_UNIT ( $, .STERADIAN. ) SOLID_ANGLE_UNIT ( ) );
#85 = LINE ( 'NONE', #155, #168 ) ;
#86 = EDGE_CURVE ( 'NONE', #36, #96, #26, .T. ) ;
#87 = FACE_OUTER_BOUND ( 'NONE', #134, .T. ) ;
#88 = ADVANCED_FACE ( 'NONE', ( #87 ), #116, .F. ) ;
#89 = DIRECTION ( 'NONE',  ( 0.0000000000000000000, 0.0000000000000000000, 1.000000000000000000 ) ) ;
#90 = AXIS2_PLACEMENT_3D ( 'NONE', #125, #105, #65 ) ;
#91 =( NAMED_UNIT ( * ) PLANE_ANGLE_UNIT ( ) SI_UNIT ( $, .RADIAN. ) );
#92 =( NAMED_UNIT ( * ) PLANE_ANGLE_UNIT ( ) SI_UNIT ( $, .RADIAN. ) );
#93 = ORIENTED_EDGE ( 'NONE', *, *, #60, .F. ) ;
#94 =( NAMED_UNIT ( * ) PLANE_ANGLE_UNIT ( ) SI_UNIT ( $, .RADIAN. ) );
#95 =( NAMED_UNIT ( * ) SI_UNIT ( $, .STERADIAN. ) SOLID_ANGLE_UNIT ( ) );
#96 = VERTEX_POINT ( 'NONE', #139 ) ;
#97 = AXIS2_PLACEMENT_3D ( 'NONE', #43, #147, #133 ) ;
#98 = AXIS2_PLACEMENT_3D ( 'NONE', #6, #170, #89 ) ;
#99 = ORIENTED_EDGE ( 'NONE', *, *, #1, .F. ) ;
#100 = STYLED_ITEM ( 'NONE', ( #77 ), #64 ) ;
#101 = FILL_AREA_STYLE_COLOUR ( '', #102 ) ;
#102 = COLOUR_RGB ( '',0.7960784313725489669, 0.8235294117647058432, 0.9372549019607843146 ) ;
#103 = DIRECTION ( 'NONE',  ( 1.000000000000000000, 0.0000000000000000000, 0.0000000000000000000 ) ) ;
#104 = CARTESIAN_POINT ( 'NONE',  ( 0.0000000000000000000, 0.0000000000000000000, 0.0000000000000000000 ) ) ;
#105 = DIRECTION ( 'NONE',  ( 1.000000000000000000, 0.0000000000000000000, 0.0000000000000000000 ) ) ;
#106 = COLOUR_RGB ( '',0.7960784313725489669, 0.8235294117647058432, 0.9372549019607843146 ) ;
#107 = MANIFOLD_SOLID_BREP ( 'Áîáûøêà-Âûòÿíóòü1', #29 ) ;
#108 =( NAMED_UNIT ( * ) PLANE_ANGLE_UNIT ( ) SI_UNIT ( $, .RADIAN. ) );
#109 = APPLICATION_CONTEXT ( 'automotive_design' ) ;
#110 = PRESENTATION_LAYER_ASSIGNMENT (  '', '', ( #46 ) ) ;
#111 = UNCERTAINTY_MEASURE_WITH_UNIT (LENGTH_MEASURE( 1.000000000000000082E-05 ), #75, 'distance_accuracy_value', 'NONE');
#112 = SURFACE_SIDE_STYLE ('',( #154 ) ) ;
#113 =( LENGTH_UNIT ( ) NAMED_UNIT ( * ) SI_UNIT ( .MILLI., .METRE. ) );
#114 = CARTESIAN_POINT ( 'NONE',  ( 0.0000000000000000000, 0.0000000000000000000, 4.000000000000000000 ) ) ;
#115 = DIRECTION ( 'NONE',  ( 1.000000000000000000, 0.0000000000000000000, 0.0000000000000000000 ) ) ;
#116 = PLANE ( 'NONE',  #90 ) ;
#117 = DIRECTION ( 'NONE',  ( 0.0000000000000000000, 0.0000000000000000000, -1.000000000000000000 ) ) ;
#118 = FILL_AREA_STYLE ('',( #30 ) ) ;
#119 = SURFACE_STYLE_USAGE ( .BOTH. , #44 ) ;
#120 = MECHANICAL_DESIGN_GEOMETRIC_PRESENTATION_REPRESENTATION (  '', ( #46 ), #126 ) ;
#121 = PRESENTATION_STYLE_ASSIGNMENT (( #37 ) ) ;
#122 = PRESENTATION_LAYER_ASSIGNMENT (  '', '', ( #135 ) ) ;
#123 = UNCERTAINTY_MEASURE_WITH_UNIT (LENGTH_MEASURE( 1.000000000000000082E-05 ), #68, 'distance_accuracy_value', 'NONE');
#124 = EDGE_CURVE ( 'NONE', #96, #62, #157, .T. ) ;
#125 = CARTESIAN_POINT ( 'NONE',  ( 0.0000000000000000000, 0.0000000000000000000, 0.0000000000000000000 ) ) ;
#126 =( GEOMETRIC_REPRESENTATION_CONTEXT ( 3 ) GLOBAL_UNCERTAINTY_ASSIGNED_CONTEXT ( ( #45 ) ) GLOBAL_UNIT_ASSIGNED_CONTEXT ( ( #59, #108, #84 ) ) REPRESENTATION_CONTEXT ( 'NONE', 'WORKASPACE' ) );
#127 = ADVANCED_FACE ( 'NONE', ( #148 ), #19, .T. ) ;
#128 = SURFACE_STYLE_USAGE ( .BOTH. , #69 ) ;
#129 = DIRECTION ( 'NONE',  ( 1.000000000000000000, 0.0000000000000000000, 0.0000000000000000000 ) ) ;
#130 = PRESENTATION_STYLE_ASSIGNMENT (( #15 ) ) ;
#131 = EDGE_LOOP ( 'NONE', ( #78, #4 ) ) ;
#132 = AXIS2_PLACEMENT_3D ( 'NONE', #14, #143, #117 ) ;
#133 = DIRECTION ( 'NONE',  ( 1.000000000000000000, 0.0000000000000000000, 0.0000000000000000000 ) ) ;
#134 = EDGE_LOOP ( 'NONE', ( #93, #47 ) ) ;
#135 = STYLED_ITEM ( 'NONE', ( #163 ), #107 ) ;
#136 = ORIENTED_EDGE ( 'NONE', *, *, #86, .T. ) ;
#137 = PRESENTATION_LAYER_ASSIGNMENT (  '', '', ( #35 ) ) ;
#138 = ADVANCED_FACE ( 'NONE', ( #5 ), #82, .T. ) ;
#139 = CARTESIAN_POINT ( 'NONE',  ( 0.0000000000000000000, 4.898587196589412829E-16, -4.000000000000000000 ) ) ;
#140 =( NAMED_UNIT ( * ) PLANE_ANGLE_UNIT ( ) SI_UNIT ( $, .RADIAN. ) );
#141 = MECHANICAL_DESIGN_GEOMETRIC_PRESENTATION_REPRESENTATION (  '', ( #135 ), #160 ) ;
#142 = FILL_AREA_STYLE_COLOUR ( '', #50 ) ;
#143 = DIRECTION ( 'NONE',  ( 1.000000000000000000, 0.0000000000000000000, 0.0000000000000000000 ) ) ;
#144 = CARTESIAN_POINT ( 'NONE',  ( 540.0000000000000000, 0.0000000000000000000, 0.0000000000000000000 ) ) ;
#145 = FACE_OUTER_BOUND ( 'NONE', #34, .T. ) ;
#146 = EDGE_CURVE ( 'NONE', #36, #74, #152, .T. ) ;
#147 = DIRECTION ( 'NONE',  ( 0.0000000000000000000, 0.0000000000000000000, 1.000000000000000000 ) ) ;
#148 = FACE_OUTER_BOUND ( 'NONE', #61, .T. ) ;
#149 = PRODUCT ( 'A218 Òðàïåöåèäàëüíûé âèíò 8õ540 ìì, 4-õ çàõîäíûé, øàã 2 ìì', 'A218 Òðàïåöåèäàëüíûé âèíò 8õ540 ìì, 4-õ çàõîäíûé, øàã 2 ìì', '', ( #28 ) ) ;
#150 = AXIS2_PLACEMENT_3D ( 'NONE', #38, #115, #25 ) ;
#151 = PRODUCT_DEFINITION_SHAPE ( 'NONE', 'NONE',  #3 ) ;
#152 = CIRCLE ( 'NONE', #10, 4.000000000000000000 ) ;
#153 = MECHANICAL_DESIGN_GEOMETRIC_PRESENTATION_REPRESENTATION (  '', ( #100 ), #49 ) ;
#154 = SURFACE_STYLE_FILL_AREA ( #21 ) ;
#155 = CARTESIAN_POINT ( 'NONE',  ( 540.0000000000000000, 0.0000000000000000000, 4.000000000000000000 ) ) ;
#156 = CARTESIAN_POINT ( 'NONE',  ( 540.0000000000000000, 0.0000000000000000000, 0.0000000000000000000 ) ) ;
#157 = CIRCLE ( 'NONE', #164, 4.000000000000000000 ) ;
#158 = DIRECTION ( 'NONE',  ( -1.000000000000000000, -0.0000000000000000000, -0.0000000000000000000 ) ) ;
#159 =( LENGTH_UNIT ( ) NAMED_UNIT ( * ) SI_UNIT ( .MILLI., .METRE. ) );
#160 =( GEOMETRIC_REPRESENTATION_CONTEXT ( 3 ) GLOBAL_UNCERTAINTY_ASSIGNED_CONTEXT ( ( #76 ) ) GLOBAL_UNIT_ASSIGNED_CONTEXT ( ( #113, #140, #79 ) ) REPRESENTATION_CONTEXT ( 'NONE', 'WORKASPACE' ) );
#161 = FILL_AREA_STYLE ('',( #11 ) ) ;
#162 = DIRECTION ( 'NONE',  ( 0.0000000000000000000, 0.0000000000000000000, -1.000000000000000000 ) ) ;
#163 = PRESENTATION_STYLE_ASSIGNMENT (( #128 ) ) ;
#164 = AXIS2_PLACEMENT_3D ( 'NONE', #104, #13, #56 ) ;
#165 = SURFACE_STYLE_FILL_AREA ( #9 ) ;
#166 = PRESENTATION_LAYER_ASSIGNMENT (  '', '', ( #100 ) ) ;
#167 = MECHANICAL_DESIGN_GEOMETRIC_PRESENTATION_REPRESENTATION (  '', ( #35 ), #67 ) ;
#168 = VECTOR ( 'NONE', #158, 1000.000000000000000 ) ;
#169 = COLOUR_RGB ( '',0.7960784313725489669, 0.8235294117647058432, 0.9372549019607843146 ) ;
#170 = DIRECTION ( 'NONE',  ( -1.000000000000000000, -0.0000000000000000000, -0.0000000000000000000 ) ) ;
ENDSEC;
END-ISO-10303-21;
