ISO-10303-21;
HEADER;
FILE_DESCRIPTION (( 'STEP AP214' ),
    '1' );
FILE_NAME ('SNSD.30.51.32. Ñóõàðü ïàçîâûé ñ ïðóæèííîé ïëàñòèíîé M6, ïàç 10(B80).STEP',
    '2017-12-18T10:54:37',
    ( '' ),
    ( '' ),
    'SwSTEP 2.0',
    'SolidWorks 2017',
    '' );
FILE_SCHEMA (( 'AUTOMOTIVE_DESIGN' ));
ENDSEC;

DATA;
#1 = PRESENTATION_STYLE_ASSIGNMENT (( #254 ) ) ;
#2 = CYLINDRICAL_SURFACE ( 'NONE', #208, 2.500000000000000000 ) ;
#3 = CARTESIAN_POINT ( 'NONE',  ( 0.0000000000000000000, -2.000000000000000000, 2.500000000000000000 ) ) ;
#4 = CARTESIAN_POINT ( 'NONE',  ( -9.000000000000000000, 2.000000000000000000, 9.000000000000000000 ) ) ;
#5 = PLANE ( 'NONE',  #122 ) ;
#6 =( NAMED_UNIT ( * ) SI_UNIT ( $, .STERADIAN. ) SOLID_ANGLE_UNIT ( ) );
#7 = DIRECTION ( 'NONE',  ( 0.0000000000000000000, 0.0000000000000000000, -1.000000000000000000 ) ) ;
#8 = ORIENTED_EDGE ( 'NONE', *, *, #224, .F. ) ;
#9 = LINE ( 'NONE', #275, #30 ) ;
#10 = DIRECTION ( 'NONE',  ( -0.0000000000000000000, -1.000000000000000000, -0.0000000000000000000 ) ) ;
#11 = DIRECTION ( 'NONE',  ( -1.000000000000000000, 0.0000000000000000000, 3.854941057726239100E-016 ) ) ;
#12 = ORIENTED_EDGE ( 'NONE', *, *, #240, .T. ) ;
#13 = FILL_AREA_STYLE_COLOUR ( '', #136 ) ;
#14 = CARTESIAN_POINT ( 'NONE',  ( 0.0000000000000000000, -2.000000000000000000, 0.0000000000000000000 ) ) ;
#15 = ADVANCED_FACE ( 'NONE', ( #79 ), #134, .F. ) ;
#16 = DIRECTION ( 'NONE',  ( 1.000000000000000000, 0.0000000000000000000, 0.0000000000000000000 ) ) ;
#17 = SURFACE_SIDE_STYLE ('',( #333 ) ) ;
#18 = ORIENTED_EDGE ( 'NONE', *, *, #48, .T. ) ;
#19 =( GEOMETRIC_REPRESENTATION_CONTEXT ( 3 ) GLOBAL_UNCERTAINTY_ASSIGNED_CONTEXT ( ( #284 ) ) GLOBAL_UNIT_ASSIGNED_CONTEXT ( ( #177, #70, #257 ) ) REPRESENTATION_CONTEXT ( 'NONE', 'WORKASPACE' ) );
#20 = APPLICATION_CONTEXT ( 'automotive_design' ) ;
#21 = APPLICATION_PROTOCOL_DEFINITION ( 'draft international standard', 'automotive_design', 1998, #155 ) ;
#22 = EDGE_CURVE ( 'NONE', #322, #276, #317, .T. ) ;
#23 = STYLED_ITEM ( 'NONE', ( #176 ), #151 ) ;
#24 = DIRECTION ( 'NONE',  ( -0.0000000000000000000, -1.000000000000000000, -0.0000000000000000000 ) ) ;
#25 = ORIENTED_EDGE ( 'NONE', *, *, #89, .T. ) ;
#26 = FACE_OUTER_BOUND ( 'NONE', #280, .T. ) ;
#27 = FACE_OUTER_BOUND ( 'NONE', #212, .T. ) ;
#28 = ORIENTED_EDGE ( 'NONE', *, *, #170, .F. ) ;
#29 = DIRECTION ( 'NONE',  ( 0.0000000000000000000, 0.0000000000000000000, 1.000000000000000000 ) ) ;
#30 = VECTOR ( 'NONE', #196, 1000.000000000000000 ) ;
#31 = ORIENTED_EDGE ( 'NONE', *, *, #320, .T. ) ;
#32 = CARTESIAN_POINT ( 'NONE',  ( -9.000000000000000000, -2.000000000000000000, -9.000000000000000000 ) ) ;
#33 = DIRECTION ( 'NONE',  ( 1.000000000000000000, 0.0000000000000000000, 0.0000000000000000000 ) ) ;
#34 = STYLED_ITEM ( 'NONE', ( #97 ), #301 ) ;
#35 = FILL_AREA_STYLE_COLOUR ( '', #279 ) ;
#36 = DIRECTION ( 'NONE',  ( 1.000000000000000000, 0.0000000000000000000, 0.0000000000000000000 ) ) ;
#37 = DIRECTION ( 'NONE',  ( -9.637352644315597700E-017, 0.0000000000000000000, 1.000000000000000000 ) ) ;
#38 = CARTESIAN_POINT ( 'NONE',  ( 0.0000000000000000000, 2.000000000000000000, 0.0000000000000000000 ) ) ;
#39 = SURFACE_STYLE_USAGE ( .BOTH. , #273 ) ;
#40 = DIRECTION ( 'NONE',  ( 0.0000000000000000000, 1.000000000000000000, 0.0000000000000000000 ) ) ;
#41 = SURFACE_SIDE_STYLE ('',( #72 ) ) ;
#42 = AXIS2_PLACEMENT_3D ( 'NONE', #66, #150, #332 ) ;
#43 = SURFACE_STYLE_FILL_AREA ( #141 ) ;
#44 = ORIENTED_EDGE ( 'NONE', *, *, #110, .T. ) ;
#45 = MECHANICAL_DESIGN_GEOMETRIC_PRESENTATION_REPRESENTATION (  '', ( #53 ), #172 ) ;
#46 = FILL_AREA_STYLE_COLOUR ( '', #283 ) ;
#47 = CARTESIAN_POINT ( 'NONE',  ( 0.0000000000000000000, 0.0000000000000000000, 0.0000000000000000000 ) ) ;
#48 = EDGE_CURVE ( 'NONE', #221, #217, #178, .T. ) ;
#49 = VERTEX_POINT ( 'NONE', #3 ) ;
#50 = LINE ( 'NONE', #124, #186 ) ;
#51 = PRESENTATION_LAYER_ASSIGNMENT (  '', '', ( #34 ) ) ;
#52 = ORIENTED_EDGE ( 'NONE', *, *, #266, .F. ) ;
#53 = STYLED_ITEM ( 'NONE', ( #1 ), #305 ) ;
#54 = VECTOR ( 'NONE', #55, 1000.000000000000000 ) ;
#55 = DIRECTION ( 'NONE',  ( -3.854941057726239100E-016, -0.0000000000000000000, -1.000000000000000000 ) ) ;
#56 = PRODUCT_DEFINITION_CONTEXT ( 'detailed design', #155, 'design' ) ;
#57 = CARTESIAN_POINT ( 'NONE',  ( -9.000000000000000000, 2.000000000000000000, -9.000000000000000000 ) ) ;
#58 = AXIS2_PLACEMENT_3D ( 'NONE', #14, #98, #338 ) ;
#59 = AXIS2_PLACEMENT_3D ( 'NONE', #311, #135, #319 ) ;
#60 = EDGE_CURVE ( 'NONE', #267, #211, #108, .T. ) ;
#61 =( LENGTH_UNIT ( ) NAMED_UNIT ( * ) SI_UNIT ( .MILLI., .METRE. ) );
#62 = FILL_AREA_STYLE_COLOUR ( '', #129 ) ;
#63 = DIRECTION ( 'NONE',  ( 0.0000000000000000000, 0.0000000000000000000, 1.000000000000000000 ) ) ;
#64 = EDGE_CURVE ( 'NONE', #318, #211, #87, .T. ) ;
#65 = CARTESIAN_POINT ( 'NONE',  ( 3.061616997868383100E-016, -2.000000000000000000, -2.500000000000000000 ) ) ;
#66 = CARTESIAN_POINT ( 'NONE',  ( 0.0000000000000000000, 0.0000000000000000000, 0.0000000000000000000 ) ) ;
#67 = ORIENTED_EDGE ( 'NONE', *, *, #119, .T. ) ;
#68 = PRODUCT_DEFINITION ( 'UNKNOWN', '', #117, #256 ) ;
#69 = ORIENTED_EDGE ( 'NONE', *, *, #22, .F. ) ;
#70 =( NAMED_UNIT ( * ) PLANE_ANGLE_UNIT ( ) SI_UNIT ( $, .RADIAN. ) );
#71 = CIRCLE ( 'NONE', #239, 2.500000000000000000 ) ;
#72 = SURFACE_STYLE_FILL_AREA ( #199 ) ;
#73 =( REPRESENTATION_RELATIONSHIP ('NONE','NONE', #93, #321 ) REPRESENTATION_RELATIONSHIP_WITH_TRANSFORMATION ( #157 )SHAPE_REPRESENTATION_RELATIONSHIP( ) );
#74 = EDGE_CURVE ( 'NONE', #268, #292, #188, .T. ) ;
#75 = ORIENTED_EDGE ( 'NONE', *, *, #60, .F. ) ;
#76 = PRODUCT_RELATED_PRODUCT_CATEGORY ( 'part', '', ( #82 ) ) ;
#77 = CYLINDRICAL_SURFACE ( 'NONE', #58, 2.500000000000000000 ) ;
#78 = VECTOR ( 'NONE', #339, 1000.000000000000000 ) ;
#79 = FACE_OUTER_BOUND ( 'NONE', #255, .T. ) ;
#80 = AXIS2_PLACEMENT_3D ( 'NONE', #137, #187, #183 ) ;
#81 = PRODUCT ( 'SNSD.30.51.19. Ñóõàðü ïàçîâûé ñ ïðóæèííîé ïëàñòèíîé M6, ïàç 8(B79)B80_00', 'SNSD.30.51.19. Ñóõàðü ïàçîâûé ñ ïðóæèííîé ïëàñòèíîé M6, ïàç 8(B79)B80_00', '', ( #310 ) ) ;
#82 = PRODUCT ( 'SNSD.30.51.32. Ñóõàðü ïàçîâûé ñ ïðóæèííîé ïëàñòèíîé M6, ïàç 10(B80)', 'SNSD.30.51.32. Ñóõàðü ïàçîâûé ñ ïðóæèííîé ïëàñòèíîé M6, ïàç 10(B80)', '', ( #235 ) ) ;
#83 = ORIENTED_EDGE ( 'NONE', *, *, #224, .T. ) ;
#84 = VECTOR ( 'NONE', #218, 1000.000000000000000 ) ;
#85 = CARTESIAN_POINT ( 'NONE',  ( 0.0000000000000000000, -2.000000000000000000, 2.500000000000000000 ) ) ;
#86 = DIRECTION ( 'NONE',  ( 0.0000000000000000000, -0.0000000000000000000, 1.000000000000000000 ) ) ;
#87 = LINE ( 'NONE', #215, #54 ) ;
#88 = CARTESIAN_POINT ( 'NONE',  ( 0.0000000000000000000, -2.000000000000000000, 0.0000000000000000000 ) ) ;
#89 = EDGE_CURVE ( 'NONE', #267, #221, #114, .T. ) ;
#90 =( LENGTH_UNIT ( ) NAMED_UNIT ( * ) SI_UNIT ( .MILLI., .METRE. ) );
#91 = VECTOR ( 'NONE', #173, 1000.000000000000000 ) ;
#92 = CARTESIAN_POINT ( 'NONE',  ( 3.061616997868383100E-016, -2.000000000000000000, -2.500000000000000000 ) ) ;
#93 = SHAPE_REPRESENTATION ( 'SNSD.30.51.32. Ñóõàðü ïàçîâûé ñ ïðóæèííîé ïëàñòèíîé M6, ïàç 10(B80)', ( #138, #42 ), #19 ) ;
#94 = AXIS2_PLACEMENT_3D ( 'NONE', #323, #327, #192 ) ;
#95 = ORIENTED_EDGE ( 'NONE', *, *, #110, .F. ) ;
#96 = CARTESIAN_POINT ( 'NONE',  ( -9.000000000000000000, 2.000000000000000000, 9.000000000000000000 ) ) ;
#97 = PRESENTATION_STYLE_ASSIGNMENT (( #253 ) ) ;
#98 = DIRECTION ( 'NONE',  ( -0.0000000000000000000, 1.000000000000000000, -0.0000000000000000000 ) ) ;
#99 = VECTOR ( 'NONE', #24, 1000.000000000000000 ) ;
#100 = SHAPE_DEFINITION_REPRESENTATION ( #262, #93 ) ;
#101 = LINE ( 'NONE', #277, #120 ) ;
#102 =( LENGTH_UNIT ( ) NAMED_UNIT ( * ) SI_UNIT ( .MILLI., .METRE. ) );
#103 = AXIS2_PLACEMENT_3D ( 'NONE', #205, #161, #210 ) ;
#104 = FILL_AREA_STYLE ('',( #46 ) ) ;
#105 = CARTESIAN_POINT ( 'NONE',  ( 0.0000000000000000000, 0.0000000000000000000, 0.0000000000000000000 ) ) ;
#106 = MECHANICAL_DESIGN_GEOMETRIC_PRESENTATION_REPRESENTATION (  '', ( #34 ), #142 ) ;
#107 = FACE_BOUND ( 'NONE', #281, .T. ) ;
#108 = LINE ( 'NONE', #237, #78 ) ;
#109 = FACE_OUTER_BOUND ( 'NONE', #181, .T. ) ;
#110 = EDGE_CURVE ( 'NONE', #331, #49, #287, .T. ) ;
#111 = ORIENTED_EDGE ( 'NONE', *, *, #22, .T. ) ;
#112 = CARTESIAN_POINT ( 'NONE',  ( -9.000000000000000000, 2.000000000000000000, 9.000000000000000000 ) ) ;
#113 = CARTESIAN_POINT ( 'NONE',  ( 0.0000000000000000000, 2.000000000000000000, 0.0000000000000000000 ) ) ;
#114 = LINE ( 'NONE', #261, #236 ) ;
#115 = EDGE_LOOP ( 'NONE', ( #95, #31, #111, #160 ) ) ;
#116 = CARTESIAN_POINT ( 'NONE',  ( -9.000000000000000000, 2.000000000000000000, -9.000000000000000000 ) ) ;
#117 = PRODUCT_DEFINITION_FORMATION_WITH_SPECIFIED_SOURCE ( 'ANY', '', #82, .NOT_KNOWN. ) ;
#118 =( NAMED_UNIT ( * ) PLANE_ANGLE_UNIT ( ) SI_UNIT ( $, .RADIAN. ) );
#119 = EDGE_CURVE ( 'NONE', #217, #292, #193, .T. ) ;
#120 = VECTOR ( 'NONE', #10, 1000.000000000000000 ) ;
#121 = CARTESIAN_POINT ( 'NONE',  ( 8.999999999999998200, 2.000000000000000000, -8.999999999999998200 ) ) ;
#122 = AXIS2_PLACEMENT_3D ( 'NONE', #113, #139, #86 ) ;
#123 = ADVANCED_FACE ( 'NONE', ( #316, #216 ), #5, .T. ) ;
#124 = CARTESIAN_POINT ( 'NONE',  ( -9.000000000000000000, -2.000000000000000000, 9.000000000000000000 ) ) ;
#125 = FACE_OUTER_BOUND ( 'NONE', #131, .T. ) ;
#126 = ORIENTED_EDGE ( 'NONE', *, *, #320, .F. ) ;
#127 =( NAMED_UNIT ( * ) SI_UNIT ( $, .STERADIAN. ) SOLID_ANGLE_UNIT ( ) );
#128 = SHAPE_REPRESENTATION_RELATIONSHIP ( 'NONE' , 'NONE' ,  #321, #305 ) ;
#129 = COLOUR_RGB ( '',0.6980392156862744700, 0.6980392156862744700, 0.6980392156862744700 ) ;
#130 = APPLICATION_CONTEXT ( 'automotive_design' ) ;
#131 = EDGE_LOOP ( 'NONE', ( #238, #207, #249, #52 ) ) ;
#132 = DIRECTION ( 'NONE',  ( 0.0000000000000000000, 0.0000000000000000000, 1.000000000000000000 ) ) ;
#133 = ORIENTED_EDGE ( 'NONE', *, *, #240, .F. ) ;
#134 = PLANE ( 'NONE',  #59 ) ;
#135 = DIRECTION ( 'NONE',  ( 0.0000000000000000000, 0.0000000000000000000, -1.000000000000000000 ) ) ;
#136 = COLOUR_RGB ( '',0.6980392156862744700, 0.6980392156862744700, 0.6980392156862744700 ) ;
#137 = CARTESIAN_POINT ( 'NONE',  ( 0.0000000000000000000, 2.000000000000000000, 0.0000000000000000000 ) ) ;
#138 = AXIS2_PLACEMENT_3D ( 'NONE', #260, #132, #16 ) ;
#139 = DIRECTION ( 'NONE',  ( 0.0000000000000000000, 1.000000000000000000, 0.0000000000000000000 ) ) ;
#140 = ORIENTED_EDGE ( 'NONE', *, *, #48, .F. ) ;
#141 = FILL_AREA_STYLE ('',( #35 ) ) ;
#142 =( GEOMETRIC_REPRESENTATION_CONTEXT ( 3 ) GLOBAL_UNCERTAINTY_ASSIGNED_CONTEXT ( ( #340 ) ) GLOBAL_UNIT_ASSIGNED_CONTEXT ( ( #90, #118, #247 ) ) REPRESENTATION_CONTEXT ( 'NONE', 'WORKASPACE' ) );
#143 = CARTESIAN_POINT ( 'NONE',  ( 8.999999999999998200, -2.000000000000000000, -8.999999999999998200 ) ) ;
#144 = ORIENTED_EDGE ( 'NONE', *, *, #229, .T. ) ;
#145 = FILL_AREA_STYLE ('',( #13 ) ) ;
#146 = UNCERTAINTY_MEASURE_WITH_UNIT (LENGTH_MEASURE( 1.000000000000000100E-005 ), #326, 'distance_accuracy_value', 'NONE');
#147 = PRESENTATION_LAYER_ASSIGNMENT (  '', '', ( #23 ) ) ;
#148 = CARTESIAN_POINT ( 'NONE',  ( 9.000000000000005300, -2.000000000000000000, 9.000000000000000000 ) ) ;
#149 = ADVANCED_FACE ( 'NONE', ( #107, #125 ), #190, .F. ) ;
#150 = DIRECTION ( 'NONE',  ( 0.0000000000000000000, 0.0000000000000000000, 1.000000000000000000 ) ) ;
#151 = MANIFOLD_SOLID_BREP ( 'Âûðåç-Âûòÿíóòü1', #259 ) ;
#152 = DIRECTION ( 'NONE',  ( 1.000000000000000000, 0.0000000000000000000, 0.0000000000000000000 ) ) ;
#153 = ORIENTED_EDGE ( 'NONE', *, *, #296, .T. ) ;
#154 = APPLICATION_CONTEXT ( 'automotive_design' ) ;
#155 = APPLICATION_CONTEXT ( 'automotive_design' ) ;
#156 = DIRECTION ( 'NONE',  ( -0.0000000000000000000, -1.000000000000000000, -0.0000000000000000000 ) ) ;
#157 = ITEM_DEFINED_TRANSFORMATION ( 'NONE', 'NONE', #42,  #315 ) ;
#158 = LINE ( 'NONE', #242, #219 ) ;
#159 = STYLED_ITEM ( 'NONE', ( #251 ), #328 ) ;
#160 = ORIENTED_EDGE ( 'NONE', *, *, #194, .F. ) ;
#161 = DIRECTION ( 'NONE',  ( 0.0000000000000000000, 1.000000000000000000, 0.0000000000000000000 ) ) ;
#162 = CARTESIAN_POINT ( 'NONE',  ( -9.000000000000000000, 2.000000000000000000, -9.000000000000000000 ) ) ;
#163 = MECHANICAL_DESIGN_GEOMETRIC_PRESENTATION_REPRESENTATION (  '', ( #23 ), #184 ) ;
#164 = ORIENTED_EDGE ( 'NONE', *, *, #60, .T. ) ;
#165 = CARTESIAN_POINT ( 'NONE',  ( -9.000000000000000000, -2.000000000000000000, -9.000000000000000000 ) ) ;
#166 =( NAMED_UNIT ( * ) PLANE_ANGLE_UNIT ( ) SI_UNIT ( $, .RADIAN. ) );
#167 = UNCERTAINTY_MEASURE_WITH_UNIT (LENGTH_MEASURE( 1.000000000000000100E-005 ), #61, 'distance_accuracy_value', 'NONE');
#168 = DIRECTION ( 'NONE',  ( -0.0000000000000000000, 1.000000000000000000, -0.0000000000000000000 ) ) ;
#169 = DIRECTION ( 'NONE',  ( 0.0000000000000000000, 0.0000000000000000000, 1.000000000000000000 ) ) ;
#170 = EDGE_CURVE ( 'NONE', #268, #185, #291, .T. ) ;
#171 = ORIENTED_EDGE ( 'NONE', *, *, #245, .F. ) ;
#172 =( GEOMETRIC_REPRESENTATION_CONTEXT ( 3 ) GLOBAL_UNCERTAINTY_ASSIGNED_CONTEXT ( ( #265 ) ) GLOBAL_UNIT_ASSIGNED_CONTEXT ( ( #102, #278, #232 ) ) REPRESENTATION_CONTEXT ( 'NONE', 'WORKASPACE' ) );
#173 = DIRECTION ( 'NONE',  ( -0.0000000000000000000, 1.000000000000000000, -0.0000000000000000000 ) ) ;
#174 = PRESENTATION_LAYER_ASSIGNMENT (  '', '', ( #159 ) ) ;
#175 = CARTESIAN_POINT ( 'NONE',  ( -9.000000000000000000, -2.000000000000000000, 9.000000000000000000 ) ) ;
#176 = PRESENTATION_STYLE_ASSIGNMENT (( #220 ) ) ;
#177 =( LENGTH_UNIT ( ) NAMED_UNIT ( * ) SI_UNIT ( .MILLI., .METRE. ) );
#178 = LINE ( 'NONE', #162, #271 ) ;
#179 = APPLICATION_PROTOCOL_DEFINITION ( 'draft international standard', 'automotive_design', 1998, #130 ) ;
#180 = AXIS2_PLACEMENT_3D ( 'NONE', #105, #336, #334 ) ;
#181 = EDGE_LOOP ( 'NONE', ( #67, #285, #263, #18 ) ) ;
#182 = ORIENTED_EDGE ( 'NONE', *, *, #245, .T. ) ;
#183 = DIRECTION ( 'NONE',  ( 0.0000000000000000000, 0.0000000000000000000, 1.000000000000000000 ) ) ;
#184 =( GEOMETRIC_REPRESENTATION_CONTEXT ( 3 ) GLOBAL_UNCERTAINTY_ASSIGNED_CONTEXT ( ( #146 ) ) GLOBAL_UNIT_ASSIGNED_CONTEXT ( ( #326, #166, #6 ) ) REPRESENTATION_CONTEXT ( 'NONE', 'WORKASPACE' ) );
#185 = VERTEX_POINT ( 'NONE', #294 ) ;
#186 = VECTOR ( 'NONE', #252, 1000.000000000000000 ) ;
#187 = DIRECTION ( 'NONE',  ( 0.0000000000000000000, 1.000000000000000000, 0.0000000000000000000 ) ) ;
#188 = LINE ( 'NONE', #112, #99 ) ;
#189 = EDGE_LOOP ( 'NONE', ( #272, #69 ) ) ;
#190 = PLANE ( 'NONE',  #94 ) ;
#191 = PRODUCT_DEFINITION ( 'UNKNOWN', '', #309, #56 ) ;
#192 = DIRECTION ( 'NONE',  ( 0.0000000000000000000, -0.0000000000000000000, 1.000000000000000000 ) ) ;
#193 = LINE ( 'NONE', #165, #206 ) ;
#194 = EDGE_CURVE ( 'NONE', #49, #276, #295, .T. ) ;
#195 = PRODUCT_DEFINITION_SHAPE ( 'NONE', 'NONE',  #191 ) ;
#196 = DIRECTION ( 'NONE',  ( -3.854941057726239100E-016, -0.0000000000000000000, -1.000000000000000000 ) ) ;
#197 = ORIENTED_EDGE ( 'NONE', *, *, #170, .T. ) ;
#198 = CARTESIAN_POINT ( 'NONE',  ( 3.061616997868383100E-016, 2.000000000000000000, -2.500000000000000000 ) ) ;
#199 = FILL_AREA_STYLE ('',( #62 ) ) ;
#200 = ORIENTED_EDGE ( 'NONE', *, *, #266, .T. ) ;
#201 =( NAMED_UNIT ( * ) SI_UNIT ( $, .STERADIAN. ) SOLID_ANGLE_UNIT ( ) );
#202 = ADVANCED_FACE ( 'NONE', ( #109 ), #246, .F. ) ;
#203 = ORIENTED_EDGE ( 'NONE', *, *, #74, .T. ) ;
#204 = EDGE_CURVE ( 'NONE', #211, #217, #158, .T. ) ;
#205 = CARTESIAN_POINT ( 'NONE',  ( 0.0000000000000000000, -2.000000000000000000, 0.0000000000000000000 ) ) ;
#206 = VECTOR ( 'NONE', #29, 1000.000000000000000 ) ;
#207 = ORIENTED_EDGE ( 'NONE', *, *, #204, .F. ) ;
#208 = AXIS2_PLACEMENT_3D ( 'NONE', #303, #168, #330 ) ;
#209 = LINE ( 'NONE', #225, #213 ) ;
#210 = DIRECTION ( 'NONE',  ( 0.0000000000000000000, 0.0000000000000000000, 1.000000000000000000 ) ) ;
#211 = VERTEX_POINT ( 'NONE', #143 ) ;
#212 = EDGE_LOOP ( 'NONE', ( #126, #8, #230, #153 ) ) ;
#213 = VECTOR ( 'NONE', #297, 1000.000000000000000 ) ;
#214 = FACE_OUTER_BOUND ( 'NONE', #115, .T. ) ;
#215 = CARTESIAN_POINT ( 'NONE',  ( 8.999999999999998200, -2.000000000000000000, -8.999999999999998200 ) ) ;
#216 = FACE_OUTER_BOUND ( 'NONE', #306, .T. ) ;
#217 = VERTEX_POINT ( 'NONE', #32 ) ;
#218 = DIRECTION ( 'NONE',  ( -0.0000000000000000000, 1.000000000000000000, -0.0000000000000000000 ) ) ;
#219 = VECTOR ( 'NONE', #325, 1000.000000000000000 ) ;
#220 = SURFACE_STYLE_USAGE ( .BOTH. , #289 ) ;
#221 = VERTEX_POINT ( 'NONE', #57 ) ;
#222 = CARTESIAN_POINT ( 'NONE',  ( 8.999999999999998200, 2.000000000000000000, -8.999999999999998200 ) ) ;
#223 = DIRECTION ( 'NONE',  ( 1.000000000000000000, 0.0000000000000000000, 9.637352644315597700E-017 ) ) ;
#224 = EDGE_CURVE ( 'NONE', #49, #331, #71, .T. ) ;
#225 = CARTESIAN_POINT ( 'NONE',  ( -9.000000000000000000, 2.000000000000000000, -9.000000000000000000 ) ) ;
#226 = DIRECTION ( 'NONE',  ( 0.0000000000000000000, 1.000000000000000000, 0.0000000000000000000 ) ) ;
#227 = ADVANCED_FACE ( 'NONE', ( #26 ), #270, .F. ) ;
#228 = AXIS2_PLACEMENT_3D ( 'NONE', #121, #11, #329 ) ;
#229 = EDGE_CURVE ( 'NONE', #221, #268, #209, .T. ) ;
#230 = ORIENTED_EDGE ( 'NONE', *, *, #194, .T. ) ;
#231 = EDGE_LOOP ( 'NONE', ( #335, #75, #171, #12 ) ) ;
#232 =( NAMED_UNIT ( * ) SI_UNIT ( $, .STERADIAN. ) SOLID_ANGLE_UNIT ( ) );
#233 = LINE ( 'NONE', #92, #91 ) ;
#234 = APPLICATION_PROTOCOL_DEFINITION ( 'draft international standard', 'automotive_design', 1998, #20 ) ;
#235 = PRODUCT_CONTEXT ( 'NONE', #130, 'mechanical' ) ;
#236 = VECTOR ( 'NONE', #286, 1000.000000000000000 ) ;
#237 = CARTESIAN_POINT ( 'NONE',  ( 8.999999999999998200, 2.000000000000000000, -8.999999999999998200 ) ) ;
#238 = ORIENTED_EDGE ( 'NONE', *, *, #119, .F. ) ;
#239 = AXIS2_PLACEMENT_3D ( 'NONE', #88, #40, #169 ) ;
#240 = EDGE_CURVE ( 'NONE', #185, #318, #101, .T. ) ;
#241 = VECTOR ( 'NONE', #33, 1000.000000000000000 ) ;
#242 = CARTESIAN_POINT ( 'NONE',  ( -9.000000000000000000, -2.000000000000000000, -9.000000000000000000 ) ) ;
#243 = MECHANICAL_DESIGN_GEOMETRIC_PRESENTATION_REPRESENTATION (  '', ( #159 ), #264 ) ;
#244 = CARTESIAN_POINT ( 'NONE',  ( -9.000000000000000000, 2.000000000000000000, -9.000000000000000000 ) ) ;
#245 = EDGE_CURVE ( 'NONE', #185, #267, #9, .T. ) ;
#246 = PLANE ( 'NONE',  #300 ) ;
#247 =( NAMED_UNIT ( * ) SI_UNIT ( $, .STERADIAN. ) SOLID_ANGLE_UNIT ( ) );
#248 = PRODUCT_RELATED_PRODUCT_CATEGORY ( 'part', '', ( #81 ) ) ;
#249 = ORIENTED_EDGE ( 'NONE', *, *, #64, .F. ) ;
#250 = CONTEXT_DEPENDENT_SHAPE_REPRESENTATION ( #73, #314 ) ;
#251 = PRESENTATION_STYLE_ASSIGNMENT (( #39 ) ) ;
#252 = DIRECTION ( 'NONE',  ( 1.000000000000000000, 0.0000000000000000000, 0.0000000000000000000 ) ) ;
#253 = SURFACE_STYLE_USAGE ( .BOTH. , #41 ) ;
#254 = SURFACE_STYLE_USAGE ( .BOTH. , #17 ) ;
#255 = EDGE_LOOP ( 'NONE', ( #200, #133, #28, #203 ) ) ;
#256 = PRODUCT_DEFINITION_CONTEXT ( 'detailed design', #20, 'design' ) ;
#257 =( NAMED_UNIT ( * ) SI_UNIT ( $, .STERADIAN. ) SOLID_ANGLE_UNIT ( ) );
#258 =( NAMED_UNIT ( * ) PLANE_ANGLE_UNIT ( ) SI_UNIT ( $, .RADIAN. ) );
#259 = CLOSED_SHELL ( 'NONE', ( #328, #202, #15, #298, #227, #123, #149, #301 ) ) ;
#260 = CARTESIAN_POINT ( 'NONE',  ( 0.0000000000000000000, 0.0000000000000000000, 0.0000000000000000000 ) ) ;
#261 = CARTESIAN_POINT ( 'NONE',  ( -9.000000000000000000, 2.000000000000000000, -9.000000000000000000 ) ) ;
#262 = PRODUCT_DEFINITION_SHAPE ( 'NONE', 'NONE',  #68 ) ;
#263 = ORIENTED_EDGE ( 'NONE', *, *, #229, .F. ) ;
#264 =( GEOMETRIC_REPRESENTATION_CONTEXT ( 3 ) GLOBAL_UNCERTAINTY_ASSIGNED_CONTEXT ( ( #167 ) ) GLOBAL_UNIT_ASSIGNED_CONTEXT ( ( #61, #258, #127 ) ) REPRESENTATION_CONTEXT ( 'NONE', 'WORKASPACE' ) );
#265 = UNCERTAINTY_MEASURE_WITH_UNIT (LENGTH_MEASURE( 1.000000000000000100E-005 ), #102, 'distance_accuracy_value', 'NONE');
#266 = EDGE_CURVE ( 'NONE', #292, #318, #50, .T. ) ;
#267 = VERTEX_POINT ( 'NONE', #222 ) ;
#268 = VERTEX_POINT ( 'NONE', #96 ) ;
#269 = AXIS2_PLACEMENT_3D ( 'NONE', #116, #37, #223 ) ;
#270 = PLANE ( 'NONE',  #269 ) ;
#271 = VECTOR ( 'NONE', #156, 1000.000000000000000 ) ;
#272 = ORIENTED_EDGE ( 'NONE', *, *, #296, .F. ) ;
#273 = SURFACE_SIDE_STYLE ('',( #337 ) ) ;
#274 = DIRECTION ( 'NONE',  ( 0.0000000000000000000, 0.0000000000000000000, 1.000000000000000000 ) ) ;
#275 = CARTESIAN_POINT ( 'NONE',  ( 8.999999999999998200, 2.000000000000000000, -8.999999999999998200 ) ) ;
#276 = VERTEX_POINT ( 'NONE', #302 ) ;
#277 = CARTESIAN_POINT ( 'NONE',  ( 9.000000000000005300, 2.000000000000000000, 9.000000000000000000 ) ) ;
#278 =( NAMED_UNIT ( * ) PLANE_ANGLE_UNIT ( ) SI_UNIT ( $, .RADIAN. ) );
#279 = COLOUR_RGB ( '',0.6980392156862744700, 0.6980392156862744700, 0.6980392156862744700 ) ;
#280 = EDGE_LOOP ( 'NONE', ( #342, #140, #341, #164 ) ) ;
#281 = EDGE_LOOP ( 'NONE', ( #83, #44 ) ) ;
#282 = APPLICATION_PROTOCOL_DEFINITION ( 'draft international standard', 'automotive_design', 1998, #154 ) ;
#283 = COLOUR_RGB ( '',0.6980392156862744700, 0.6980392156862744700, 0.6980392156862744700 ) ;
#284 = UNCERTAINTY_MEASURE_WITH_UNIT (LENGTH_MEASURE( 1.000000000000000100E-005 ), #177, 'distance_accuracy_value', 'NONE');
#285 = ORIENTED_EDGE ( 'NONE', *, *, #74, .F. ) ;
#286 = DIRECTION ( 'NONE',  ( -1.000000000000000000, -0.0000000000000000000, -9.637352644315597700E-017 ) ) ;
#287 = CIRCLE ( 'NONE', #103, 2.500000000000000000 ) ;
#288 = PRESENTATION_LAYER_ASSIGNMENT (  '', '', ( #53 ) ) ;
#289 = SURFACE_SIDE_STYLE ('',( #43 ) ) ;
#290 =( GEOMETRIC_REPRESENTATION_CONTEXT ( 3 ) GLOBAL_UNCERTAINTY_ASSIGNED_CONTEXT ( ( #313 ) ) GLOBAL_UNIT_ASSIGNED_CONTEXT ( ( #307, #304, #201 ) ) REPRESENTATION_CONTEXT ( 'NONE', 'WORKASPACE' ) );
#291 = LINE ( 'NONE', #4, #241 ) ;
#292 = VERTEX_POINT ( 'NONE', #175 ) ;
#293 = SHAPE_DEFINITION_REPRESENTATION ( #195, #321 ) ;
#294 = CARTESIAN_POINT ( 'NONE',  ( 9.000000000000005300, 2.000000000000000000, 9.000000000000000000 ) ) ;
#295 = LINE ( 'NONE', #85, #84 ) ;
#296 = EDGE_CURVE ( 'NONE', #276, #322, #308, .T. ) ;
#297 = DIRECTION ( 'NONE',  ( 0.0000000000000000000, 0.0000000000000000000, 1.000000000000000000 ) ) ;
#298 = ADVANCED_FACE ( 'NONE', ( #312 ), #299, .F. ) ;
#299 = PLANE ( 'NONE',  #228 ) ;
#300 = AXIS2_PLACEMENT_3D ( 'NONE', #244, #36, #7 ) ;
#301 = ADVANCED_FACE ( 'NONE', ( #27 ), #2, .F. ) ;
#302 = CARTESIAN_POINT ( 'NONE',  ( 0.0000000000000000000, 2.000000000000000000, 2.500000000000000000 ) ) ;
#303 = CARTESIAN_POINT ( 'NONE',  ( 0.0000000000000000000, -2.000000000000000000, 0.0000000000000000000 ) ) ;
#304 =( NAMED_UNIT ( * ) PLANE_ANGLE_UNIT ( ) SI_UNIT ( $, .RADIAN. ) );
#305 = ADVANCED_BREP_SHAPE_REPRESENTATION ( '', ( #151, #315 ), #290 ) ;
#306 = EDGE_LOOP ( 'NONE', ( #144, #197, #182, #25 ) ) ;
#307 =( LENGTH_UNIT ( ) NAMED_UNIT ( * ) SI_UNIT ( .MILLI., .METRE. ) );
#308 = CIRCLE ( 'NONE', #324, 2.500000000000000000 ) ;
#309 = PRODUCT_DEFINITION_FORMATION_WITH_SPECIFIED_SOURCE ( 'ANY', '', #81, .NOT_KNOWN. ) ;
#310 = PRODUCT_CONTEXT ( 'NONE', #154, 'mechanical' ) ;
#311 = CARTESIAN_POINT ( 'NONE',  ( -9.000000000000000000, 2.000000000000000000, 9.000000000000000000 ) ) ;
#312 = FACE_OUTER_BOUND ( 'NONE', #231, .T. ) ;
#313 = UNCERTAINTY_MEASURE_WITH_UNIT (LENGTH_MEASURE( 1.000000000000000100E-005 ), #307, 'distance_accuracy_value', 'NONE');
#314 = PRODUCT_DEFINITION_SHAPE ( 'NONE', 'NONE',  #343 ) ;
#315 = AXIS2_PLACEMENT_3D ( 'NONE', #47, #63, #152 ) ;
#316 = FACE_BOUND ( 'NONE', #189, .T. ) ;
#317 = CIRCLE ( 'NONE', #80, 2.500000000000000000 ) ;
#318 = VERTEX_POINT ( 'NONE', #148 ) ;
#319 = DIRECTION ( 'NONE',  ( -1.000000000000000000, 0.0000000000000000000, -0.0000000000000000000 ) ) ;
#320 = EDGE_CURVE ( 'NONE', #331, #322, #233, .T. ) ;
#321 = SHAPE_REPRESENTATION ( 'SNSD.30.51.19. Ñóõàðü ïàçîâûé ñ ïðóæèííîé ïëàñòèíîé M6, ïàç 8(B79)B80_00', ( #315 ), #290 ) ;
#322 = VERTEX_POINT ( 'NONE', #198 ) ;
#323 = CARTESIAN_POINT ( 'NONE',  ( 0.0000000000000000000, -2.000000000000000000, 0.0000000000000000000 ) ) ;
#324 = AXIS2_PLACEMENT_3D ( 'NONE', #38, #226, #274 ) ;
#325 = DIRECTION ( 'NONE',  ( -1.000000000000000000, -0.0000000000000000000, -9.637352644315597700E-017 ) ) ;
#326 =( LENGTH_UNIT ( ) NAMED_UNIT ( * ) SI_UNIT ( .MILLI., .METRE. ) );
#327 = DIRECTION ( 'NONE',  ( 0.0000000000000000000, 1.000000000000000000, 0.0000000000000000000 ) ) ;
#328 = ADVANCED_FACE ( 'NONE', ( #214 ), #77, .F. ) ;
#329 = DIRECTION ( 'NONE',  ( 3.854941057726239100E-016, 0.0000000000000000000, 1.000000000000000000 ) ) ;
#330 = DIRECTION ( 'NONE',  ( 0.0000000000000000000, 0.0000000000000000000, 1.000000000000000000 ) ) ;
#331 = VERTEX_POINT ( 'NONE', #65 ) ;
#332 = DIRECTION ( 'NONE',  ( 1.000000000000000000, 0.0000000000000000000, 0.0000000000000000000 ) ) ;
#333 = SURFACE_STYLE_FILL_AREA ( #104 ) ;
#334 = DIRECTION ( 'NONE',  ( 1.000000000000000000, 0.0000000000000000000, 0.0000000000000000000 ) ) ;
#335 = ORIENTED_EDGE ( 'NONE', *, *, #64, .T. ) ;
#336 = DIRECTION ( 'NONE',  ( 0.0000000000000000000, 0.0000000000000000000, 1.000000000000000000 ) ) ;
#337 = SURFACE_STYLE_FILL_AREA ( #145 ) ;
#338 = DIRECTION ( 'NONE',  ( 0.0000000000000000000, 0.0000000000000000000, 1.000000000000000000 ) ) ;
#339 = DIRECTION ( 'NONE',  ( -0.0000000000000000000, -1.000000000000000000, -0.0000000000000000000 ) ) ;
#340 = UNCERTAINTY_MEASURE_WITH_UNIT (LENGTH_MEASURE( 1.000000000000000100E-005 ), #90, 'distance_accuracy_value', 'NONE');
#341 = ORIENTED_EDGE ( 'NONE', *, *, #89, .F. ) ;
#342 = ORIENTED_EDGE ( 'NONE', *, *, #204, .T. ) ;
#343 = NEXT_ASSEMBLY_USAGE_OCCURRENCE ( 'NAUO1', ' ', ' ', #68, #191, $ ) ;
ENDSEC;
END-ISO-10303-21;
